Home » E » Empire Of The Sun »

Empire Of The Sun - We Are The People Bass

Artists:  A B C D E F G H I J K L M N O P Q R S T U V W X Y Z # 

We Are The People Bass

(ver. 1) Click to play this song!
Empire Of The Sun
-------------------------------------------------------------------------------
-------------------------------------------------------------------------------


Tuning: Standard

(0:46)
G|------------------------------------------------------------------------|
D|------------------------------------------------------------------------|
A|-7--77--77--77--7\2--22--22--22--2/3--33--33--33--3\0--00--0/2--22--2/7-|
E|------------------------------------------------------------------------|
x1

(1:03)
G|---------------------------------------------------------------------|
D|---------------------------------------------------------------------|
A|-77--77--77--7\2--22--22--22--2/3--33--33--33--3\0--00--0/2--22--2/7-|
E|---------------------------------------------------------------------|
x1

(01:18)
G|---------------------------------------------------------------------|
D|---------------------------------------------------------------------|
A|-77--77--77--7\2--22--22--22--2/3--33--33--33--3\0--00--0/2--22--2/3-|
E|---------------------------------------------------------------------|
x1

(1:34)
G|----------------------------------------------------------------------|
D|----------------------------------------------------------------------|
A|-33--3/7--77--7\5--55--55--5-0-2-3--33--3/7--77--7\5--55--55--55--5\3-|
E|----------------------------------------------------------------------|
x1

(1:51)
G|----------------------------------------------------------------------|
D|----------------------------------------------------------------------|
A|-33--3/7--77--7\5--55--55--5-0-2-3--33--3/7--77--7\5--55--55--55--5\7-|
E|----------------------------------------------------------------------|
x1

(02:06)
G|---------------------------------------------------------------------|
D|---------------------------------------------------------------------|
A|-77--77--77--7\2--22--22--22--2/3--33--33--33--3\0--00--0/2--22--2/7-|
E|---------------------------------------------------------------------|
x1

(02:23)
G|---------------------------------------------------------------------|
D|---------------------------------------------------------------------|
A|-77--77--77--7\2--22--22--22--2/3--33--33--33--3\0--00--0/2--22--2/3-|
E|---------------------------------------------------------------------|
x1

(02:38)
G|----------------------------------------------------------------------|
D|----------------------------------------------------------------------|
A|-33--3/7--77--7\5--55--55--5-0-2-3--33--3/7--77--7\5--55--55--55--5\3-|
E|----------------------------------------------------------------------|
x1

(02:53)
G|----------------------------------------------------------------------|
D|----------------------------------------------------------------------|
A|-33--3/7--77--7\5--55--55--5-0-2-3--33--3/7--77--7\5--55--55--55--5\7-|
E|----------------------------------------------------------------------|
x1

(03:09)
G|---------------------------------------------------------------------|
D|---------------------------------------------------------------------|
A|-77--77--77--7\2--22--22--22--2/3--33--33--33--3\0--00--0/2--22--2/7-|
E|---------------------------------------------------------------------|
x1

(03:25)
G|---------------------------------------------------------------------|
D|---------------------------------------------------------------------|
A|-77--77--77--7\2--22--22--22--2/3--33--33--33--3\0--00--0/2--22--2/3-|
E|---------------------------------------------------------------------|
x1

(03:41)
G|----------------------------------------------------------------------|
D|----------------------------------------------------------------------|
A|-33--3/7--77--7\5--55--55--5-0-2-3--33--3/7--77--7\5--55--55--55--5\3-|
E|----------------------------------------------------------------------|
x1

(03:56)
G|----------------------------------------------------------------------|
D|----------------------------------------------------------------------|
A|-33--3/7--77--7\5--55--55--5-0-2-3--33--3/7--77--7\5--55--55--55--5\3-|
E|----------------------------------------------------------------------|
(Repeat till fade)

| /  slide up
| \  slide down
| h  hammer-on
| p  pull-off
| ~  vibrato
| +  harmonic
| x  Mute note
===============================================================================
            
Submit corrections

↑ Back to top | Tablatures and chords for acoustic guitar and electric guitar, ukulele, drums are parodies/interpretations of the original songs. You may use it for private study, scholarship, research or language learning purposes only