Home » E » Element Eighty »

Element Eighty - Texas Cries Tabs

Artists:  A B C D E F G H I J K L M N O P Q R S T U V W X Y Z # 

Texas Cries Tabs

(ver. 1) Click to play this song!
Element Eighty
Standard Tuning: EADGBE

Note: Time is elapsed

Intro
E------------------------------------|
B------------------------------------|
G--13-15\11-13-9\11-8-8-6-6-4-4-6-6--| (Repeat x2)
D------------------------------------|
A------------------------------------|
E------------------------------------|

''Texas Cries!!'' (2:28)
E-----------------------------|
B-----------------------------|
G------6~---------------9--8--| (Repeat x2)
D--xx--6~--0--6--7--99--9--8--|
A--xx--4~--0--6--7--99--7--6--|
E--xx------0--4--5--77--------|


Verse (2:18) 
''I dont know why...you rot away, when i need you!''
E---------------------|---------|
B---------------------|---------|
G----------------9-8--|------9--|
D--6/7--xxx--99--9-8--|--99--9--| (Repeat x2)
A--6/7--xxx--99--7-6--|--99--7--|
E--4/5--xxx--77-------|--77-----|
 

Pre Chorus

''Leave me, i thought you said you loved me'' (2:08)
E-------------------------------------------------------------------|
B-------------------------------------------------------------------|
G--1313--131313131313--1111--111111111111--99--999999--10/11\10--6--|
D--x-x---x-x-x-x-x-x---x-x---x-x-x-x-x-x---xx--xxxxxx--x-/x-\x---x--|
A--1111--111111111111--9-9---9-9-9-9-9-9---77--777777--8-/9-\8---4--|
E-------------------------------------------------------------------|


Finish Pre Chours with
|-----------|
|-----------|
|-----------|
|-----------|
|--55--7-6--|
|--55--7-6--|


Pre Chours 2 (Screamy) (1:58)
E----------------------------------------------|
B----------------------------------------------|
G----------------------------------10/11\10\6--|
D----------------------------------x-/x-\x-\x--|
A--00--0000000--00--0000000--0000--8-/9-\8-\4--|
E--00--0000000--00--0000000--0000--------------|
   xx  xxxxxxx  xx  xxxxxxx  xxxx
    

Finish Pre Chours with
|-----------|
|-----------|
|-----------|
|-----------|
|--55--7-6--|
|--55--7-6--|


Chorus

''Texas Cries!!'' (1:47)
E-----------------------------|
B-----------------------------|
G------6~---------------9--8--|
D--xx--6~--0--6--7--99--9--8--|(Repeat x2)
A--xx--4~--0--6--7--99--7--6--|
E--xx------0--4--5--77--------|

 
(1:37)
''I dont know why...you rot away, when i need you!''
E------------------|---------|
B------------------|---------|
G-------------9-8--|------9--|
D--6/7----99--9-8--|--99--9--| (Repeat x2)
A--6/7----99--7-6--|--99--7--|
E--4/5----77-------|--77-----|


''Leave me, i thought you said you loved me'' (1:25)
E-------------------------------------------------------------------|
B-------------------------------------------------------------------|
G--1313--131313131313--1111--111111111111--99--999999--10/11\10--6--|
D--x-x---x-x-x-x-x-x---x-x---x-x-x-x-x-x---xx--xxxxxx--x-/x-\x---x--|
A--1111--111111111111--9-9---9-9-9-9-9-9---77--777777--8-/9-\8---4--|
E-------------------------------------------------------------------|

Finish Pre Chours with

|-----------|
|-----------|
|-----------|
|-----------|
|--55--7-6--|
|--55--7-6--|


Pre Chours 2 (Screamy) (1:15)

E----------------------------------------------|
B----------------------------------------------|
G----------------------------------10/11\10\6--|
D----------------------------------x-/x-\x-\x--|
A--00--0000000--00--0000000--0000--8-/9-\8-\4--|
E--00--0000000--00--0000000--0000--------------|
   xx  xxxxxxx  xx  xxxxxxx  xxxx
   

Finish Pre Chours with
|-----------|
|-----------|
|-----------|
|-----------|
|--55--7-6--|
|--55--7-6--|

Breakdown

''Now...as i'm running out of breath...'' (1:05)
E---------------|----------------|----------------|-----------|
B---------------|----------------|----------------|-----------|
G--99--8--6--4~-|--99--8--6------|--99--8--6------|-----------|
D--99--8--6--4~-|--99--8--6--7~--|--99--8--6--6~--|-----------| (Repeat x2)
A--77--6--4--2~-|--77--6--4--7~--|--77--6--4--6~--|--55--7-6--|
E---------------|------------5~--|------------4~--|--55--7-6--|
   xx  x  x        xx  x  x         xx  x  x 


Note: There is a heavy riff in this part
I'm working on it don't worry!


Breakdown 2

''Why did you leave me, i thought you said you loved me'' (0:34)
E--------------------------------------------------------------|
B--------------------------------------------------------------|
G--1313--131313131313--1111--111111111111--99--999999--8--13~--|
D--x-x---x-x-x-x-x-x---x-x---x-x-x-x-x-x---xx--xxxxxx--x--x-~--|
A--1111--111111111111--9-9---9-9-9-9-9-9---77--777777--6--11~--|
E--------------------------------------------------------------|

Pre Chorus (Screamy) (0:24)

E----------------------------------------------|
B----------------------------------------------|
G----------------------------------10/11\10\6--|
D----------------------------------x-/x-\x-\x--|
A--00--0000000--00--0000000--0000--8-/9-\8-\4--|
E--00--0000000--00--0000000--0000--------------|
   xx  xxxxxxx  xx  xxxxxxx  xxxx


Finish Pre Chours with
|-----------|
|-----------|
|-----------|
|-----------|
|--55--7-6--|
|--55--7-6--|


End with this (0:10)
E-------------------------------------------------------------------|
B-------------------------------------------------------------------|
G--1313--131313131313--1111--111111111111--99--999999--10/11\10--6--|
D--x-x---x-x-x-x-x-x---x-x---x-x-x-x-x-x---xx--xxxxxx--x-/x-\x---x--|
A--1111--111111111111--9-9---9-9-9-9-9-9---77--777777--8-/9-\8---4--|
E-------------------------------------------------------------------|

|-----------|
|-----------|
|-----------|
|-----------|
|--55--7-6--|
|--55--7-6--|


Thats it!
            
Submit corrections

↑ Back to top | Tablatures and chords for acoustic guitar and electric guitar, ukulele, drums are parodies/interpretations of the original songs. You may use it for private study, scholarship, research or language learning purposes only