Home » E » Ed Sheeran »

Ed Sheeran - You Need Me I Dont Need You Live Tabs

Artists:  A B C D E F G H I J K L M N O P Q R S T U V W X Y Z # 

You Need Me I Dont Need You Live Tabs

(ver. 4) Click to play this song!
Ed Sheeran
[Intro]
 
Looping Part
 
[Intro Part 1]
 
E|-----5-----5-----5-----5/|
B|--3-----3-----3-----3----|
G|-------------------------|
D|-------------------------|
A|-------------------------|
D|-------------------------|
 
[Intro Part 2]
 
E|------------------------------------------|
B|------------------------------------------|
G|------------------12p10----------12p10----|
D|--10h12---12--10--------12~---10-------12/|
A|------------------------------------------|
D|------------------------------------------|
 
[Chords After First Looping]
 
E|-------------------------|
B|--3----------------------|
G|--2--------------3----5--|
D|--0----3----5----3----5--|
A|--0----3----5----1----3--|
D|--0----3----5----x----x--|
 
[Second Looping]
 
[Chords Part]
 
E|--5----5--5--5--5----5--5--5--5----x----x--x--x--5-------0--0--0--x|
B|--6----6--6--6--6----6--6--6--6----x----x--x--x--6-------3--3--3--x|
G|--5----5--5--5--5----5--5--5--5----5----5--5--5--5----0--2--2--2--x|
D|--7----7--7--7--7----7--7--7--7----5----3--3--3--7----3--0--0--0--x|
A|--5----5--5--5--5----5--5--5--5----3----3--3--3--5----3--0--0--0--x|
D|-----------------------------------x----x--x--x-------3--0--0--0--x|
 
[Solo Part]
 
E|-----------------------------------------------------------------------------------|
B|-----------------------------------------------------------------------------------|
G|------------------------------------------------7h10------7--14--12--9------7------|
D|-------0h3-----0-----7--5--2-----0-------7h10---------10----------------10---------|
A|--0h3-------3-----------------3----------------------------------------------------|
D|-----------------------------------------------------------------------------------|
 
E|--------------------------------------------------------------------------------------------|
B|--------------------------------------------------------------------------------------------|
G|--------------------------------------------------------------------------------------------|
D|--10h12-----12--12--------12--12--12--12--12-----12--12--12--12--12--12--12--12p10--10--10--|
A|--------------------------------------------------------------------------------------------|
D|--------------------------------------------------------------------------------------------|
 
E|-----------------------------------------------------------------------------------------|
B|-----------------------------------------------------------------------------------------|
G|--9h10-----10--10-----10--10--10--10--10-----10--10--10--10--10--10--10--10p9--9--9------|
D|-----------------------------------------------------------------------------------------|
A|-----------------------------------------------------------------------------------------|
D|-----------------------------------------------------------------------------------------|
 
[Chords After Second Looping]
 
E|--5----x-----x----5--|
B|--6----x-----x----6--|
G|--5----10----5----5--|
D|--7----10----5----7--|
A|--5----8-----3----5--|
D|--x----x-----x----x--|
 
            
Submit corrections

↑ Back to top | Tablatures and chords for acoustic guitar and electric guitar, ukulele, drums are parodies/interpretations of the original songs. You may use it for private study, scholarship, research or language learning purposes only