Home » E » Ed Sheeran »

Ed Sheeran - You Need Me I Dont Need You Tabs

Artists:  A B C D E F G H I J K L M N O P Q R S T U V W X Y Z # 

You Need Me I Dont Need You Tabs

(ver. 3) Click to play this song!
Ed Sheeran
Tuning:EADGBE

Melody
e|---------------------------------------------------------------------------|
B|---------------------------------------------------------------------------|
G|---------------------------------5-5-7-7-----------------------------------|
D|--2-2-2-2-2--5-5-5-5-5-7-7-7-7-7-5-5-7-7-----------------------------------|
A|--2-2-2-2-2--5-5-5-5-5-7-7-7-7-7-3-3-5-5-----------------------------------|
E|-------------3-3-3-3-3-5-5-5-5-5-------------------------------------------|

Backing 1
e|--7-7-7-7------------------------------------------------------------------|
B|-5-5-5-5-------------------------------------------------------------------|
G|---------------------------------------------------------------------------|
D|---------------------------------------------------------------------------|
A|---------------------------------------------------------------------------|
E|---------------------------------------------------------------------------|

            
Submit corrections

↑ Back to top | Tablatures and chords for acoustic guitar and electric guitar, ukulele, drums are parodies/interpretations of the original songs. You may use it for private study, scholarship, research or language learning purposes only