Home » E » Ed Sheeran »

Ed Sheeran - You Need Me I Dont Need You Bass

Artists:  A B C D E F G H I J K L M N O P Q R S T U V W X Y Z # 

You Need Me I Dont Need You Bass

(ver. 1) Click to play this song!
Ed Sheeran
Ed Sheeran - You need me (Tab is also the same for the Wretch 32 and Devlin Remix)



I Have a video of this Exact tab being played here...



The song uses all these parts but cuts some bits out in the begining and end of each verse...

There not worth writing out as I Promise youll pick it up so quickly as aposed to 
reading an endless tab





Guitar Intro (Is Played on a guitar but what the heck....)

G|-------12--12/14/12----12/14/12--|
D|-12h14---------------------------|
A|---------------------------------|
E|---------------------------------|



Intro

G|------------------------------------------------------|
D|------------------------------------------------------|
A|----------------3--3--5--5-----------------3--3--5----|
E|-0----3----5----------------0----3----5---------------|



Verse

G|-----------------------------------------------|
D|-----------------------------------------------|
A|------------------------------3-3---5-5---10/--|
E|-0--0----0--3-3---3--5-5---5-------------------|



Chorus

G|--------------------------------------------------|
D|--------------------------------------------------|
A|------------------------------3-3---3--5-5---10/--|
E|-0--0----0--3-3---3--5-5---5----------------------|








Ending


This isnt in the song, but I Play it on the ending on the video attatched just to fill 
it out a bit more

If you dont have a 5 string, You can get away with playing all the notes wrote on the 'B 
String', Open on the 'E String'



G|-------------------------------------------5---5----5h7-5----|
D|----------------------------------------------------------7--|
A|---------------------------------------3-3---3----5----------|
E|-------------3x3x3x32323--5x5x5x53535------------------------|
B|-5-5-5-53535-------------------------------------------------|




G|-------------------------------------------5---5----------------|
D|-----------------------------------------------------5h7-5------|
A|---------------------------------------3-3---3----5--------5h7--|
E|-------------3x3x3x32323--5x5x5x53535---------------------------|
B|-5-5-5-53535----------------------------------------------------|


Hope you enjoy this one and would love to hear how you get on with this on the video 
link attached

Harry :)
            
Submit corrections

↑ Back to top | Tablatures and chords for acoustic guitar and electric guitar, ukulele, drums are parodies/interpretations of the original songs. You may use it for private study, scholarship, research or language learning purposes only