» » »

Dwight Yoakam - A Thousand Miles From Nowhere Tabs

Artists:  A B C D E F G H I J K L M N O P Q R S T U V W X Y Z # 

A Thousand Miles From Nowhere Tabs

(ver. 1) Click to play this song!
Dwight Yoakam
 Rating:
4/5 (4 votes)

 A Thousand Miles From Nowhere lessons Tabs too difficult? Try these video lessons and learn fast
 
                A Thousand Miles From Nowhere


        
C     x32010 
Am    x02210     
F     133211 
G     3x0003
Gsus4 3x0013

Gtr I   Distortion Electric
Gtr II  Steel String Acoustic
Gtr III Distortion Electric

 Intro
  Moderately Q=120

  C                    Am
 4/4
  Gtr II
   Q    E  E +E E Q      Q   E E +E E Q
   |    |  |  | | |      |   | |  | | |
   /    /  /  / / /      /   / /  / / /

  Gtr I
        ~~~~
   Q   +H.               W
|-15--(15)-----------|-12>--------------|
|-13--(13)-----------|-------------------|
|-12--(12)-----------|-------------------|
|--------------------|-------------------|
|--------------------|-------------------|
|--------------------|-------------------|


  C                    Am
   Q    E  E +E E Q      E  E E E +E E Q
   |    |  |  | | |      |  |   |  | | |
   /    /  /  / / /      /  /   /  / / /

        ~~~~~~~~~~~~~~~~~~~~
   Q   +H.               W
|-15--(15)-----------|-12>----------------||
|-13--(13)-----------|---------------------||
|-12--(12)-----------|---------------------||
|--------------------|---------------------||
|--------------------|---------------------||
|--------------------|---------------------||


 1st Chorus
  C                 Am                 C                   Am
  E Q  E +E E E E   E Q   E +E E E E    E  Q  E +E E E E   E Q   E +E E E E
  | |  |  | | | |   | |   |  | | | |    |  |  |  | | | |   | |   |  | | | |
  / /  /  / / / /   / /   /  / / / /    /  /  /  / / / /   / /   /  / / / /

  W                 Q   E E  E E E E   +W                  Q   E E  E E E E
|-----------------|-----8-5----------|-------------------|------------------|
|-----------------|----------8p5---5-|-(5)---------------|-----8-5----------|
|-----------------|--------------7---|-------------------|----------7p5---5-|
|-----------------|------------------|-------------------|--------------7---|
|-----------------|------------------|-------------------|------------------|
|-----------------|------------------|-------------------|------------------|


  C                   Am
   E  Q  E +E E E E    E  Q  E +E E E E
   |  |  |  | | | |    |  |  |  | | | |
   /  /  /  / / / /    /  /  /  / / / /

   ~~~~~~~~~~~~~~~~~~~~~~~
  +W                  +H        Q   E E
|-------------------|-------------------|
|-------------------|-------------------|
|-(5)---------------|-(5)---------------|
|-------------------|---------------0-2-|
|-------------------|-------------------|
|-------------------|-------------------|


  F                  G
  E Q   E +E E E E   E Q   E +E E E E    E  Q  E +E E E E
  | |   |  | | | |   | |   |  | | | |    |  |  |  | | | |
  / /   /  / / / /   / /   /  / / / /    /  /  /  / / / /

                                         ~~~
  Q   H        Q     E E E E  E E Q     +W
|------------------|--------------3---|-(3)---------------||
|------------------|----------3-------|-------------------||
|-----2------------|-----4------------|-------------------||
|-3----------------|---5---5----5-----|-------------------||
|------------------|------------------|-------------------||
|------------------|------------------|-------------------||


 1st & 2nd Verses
  $
  C                 Am                 C                   Am
  E Q  E +E E E E   E Q   E +E E E E    E  Q  E +E E E E   E Q   E +E E E E
  | |  |  | | | |   | |   |  | | | |    |  |  |  | | | |   | |   |  | | | |
  / /  /  / / / /   / /   /  / / / /    /  /  /  / / / /   / /   /  / / / /

  W                 Q   E E  E E E E   +W                  Q   E E  E E E E
|-----------------|-----8p5----------|-------------------|------------------|
|-----------------|----------8p5---5-|-(5)---------------|-----8p5----------|
|-----------------|--------------7---|-------------------|----------7p5---5-|
|-----------------|------------------|-------------------|--------------7---|
|-----------------|------------------|-------------------|------------------|
|-----------------|------------------|-------------------|------------------|


  C                   Am
   E  Q  E +E E E E    E  Q  E +E E E E
   |  |  |  | | | |    |  |  |  | | | |
   /  /  /  / / / /    /  /  /  / / / /

   ~~~~~~~~~~~~~~~~~~~~~~~
  +W                  +H        Q   E E
|-------------------|-------------------|
|-------------------|-------------------|
|-(5)---------------|-(5)---------------|
|-------------------|---------------0-2-|
|-------------------|-------------------|
|-------------------|-------------------|


  F                  G                 Gsus4   G
  E Q   E +E E E E   E E E E E E E E    E  E E E E E E E
  | |   |  | | | |   | |   | | | | |    |  |   | | | | |
  / /   /  / / / /   / /   / / / / /    /  /   / / / / /

                                        ~~~
  Q   H        Q     E E E E E E Q     +W
|------------------|-------------3---|-(3)---------------||
|------------------|---------3-------|-------------------||
|-----2------------|-----4-----------|-------------------||
|-3----------------|---5---5---5-----|-------------------||
|------------------|-----------------|-------------------||
|------------------|-----------------|-------------------||


 2nd & 3rd Choruses
  C                 Am                 C                   Am
  E Q  E +E E E E   E Q   E +E E E E    E  Q  E +E E E E   E Q   E +E E E E
  | |  |  | | | |   | |   |  | | | |    |  |  |  | | | |   | |   |  | | | |
  / /  /  / / / /   / /   /  / / / /    /  /  /  / / / /   / /   /  / / / /

  W                 Q   E E  E E E E   +W                  Q   E E  E E E E
|-----------------|-----8p5----------|-------------------|------------------|
|-----------------|----------8p5---5-|-(5)---------------|-----8p5----------|
|-----------------|--------------7---|-------------------|----------7p5---5-|
|-----------------|------------------|-------------------|--------------7---|
|-----------------|------------------|-------------------|------------------|
|-----------------|------------------|-------------------|------------------|


  C                   Am
   E  Q  E +E E E E    E  Q  E +E E E E
   |  |  |  | | | |    |  |  |  | | | |
   /  /  /  / / / /    /  /  /  / / / /

   ~~~~~~~~~~~~~~~~~~~~~~~
  +W                  +H        Q   E E
|-------------------|-------------------|
|-------------------|-------------------|
|-(5)---------------|-(5)---------------|
|-------------------|---------------0-2-|
|-------------------|-------------------|
|-------------------|-------------------|


                               To Coda
  F                  G
  E Q   E +E E E E   E Q   E +E E E E    E  Q  E +E E E E
  | |   |  | | | |   | |   |  | | | |    |  |  |  | | | |
  / /   /  / / / /   / /   /  / / / /    /  /  /  / / / /

                                         ~~~
  Q   H        Q     E E E E  E E Q     +H.           Q
|------------------|--------------3---|-(3)---------------||
|------------------|----------3-------|-------------------||
|-----2------------|-----4------------|-------------------||
|-3----------------|---5---5----5-----|-------------------||
|------------------|------------------|-------------------||
|------------------|------------------|-------------------||


 1st Bridge
  F                                     G
  E Q  E +E E E E    E  Q  E +E E E E   E Q  E +E E E E
  | |  |  | | | |    |  |  |  | | | |   | |  |  | | | |
  / /  /  / / / /    /  /  /  / / / /   / /  /  / / / /

  ~~~~~~~~~~~~~~~~~~~~~~                ~~~~~~~~~~~~~~~~~
  W                 +H        H         W
|-1---------------|-(1)---------------|-3---------------|
|-1---------------|-(1)---------------|-3---------------|
|-2---------------|-(2)---------------|-4---------------|
|-----------------|-------------------|-----------------|
|-----------------|-------------------|-------------
            
Submit corrections


        A Thousand Miles From Nowhere lessons Hard to play? Try these video lessons and learn fast A Thousand Miles From Nowhere lessons
        
↑ Back to top | Tablatures and chords for acoustic guitar and electric guitar, ukulele, drums are parodies/interpretations of the original songs. You may use it for private study, scholarship, research or language learning purposes only