» » »

Dwight Yoakam - A Thousand Miles From Nowhere Tabs

Artists:  A B C D E F G H I J K L M N O P Q R S T U V W X Y Z # 

A Thousand Miles From Nowhere Tabs

(ver. 2) Click to play this song!
Dwight Yoakam
 Rating:
4/5 (4 votes)

 A Thousand Miles From Nowhere lessons Tabs too difficult? Try these video lessons and learn fast
 
                (1)
Key:

h: Hammer	p:  Pull Off	/:  Slide	b: Bend

br: Bend and release	~~~:  Vibrato	x: Muted string

nh:  Natural Harmonic	ah: Artificial (pinch) Harmonic
*******************************************************************

Intro:

E-15~~~~~~~~-------12nh-------15~~~~~~~~-------12nh----------------
B-13~~~~~~~~------------------13~~~~~~~~---------------------------
G-12~~~~~~~~------------------12~~~~~~~~---------------------------
D------------------------------------------------------------------
A------------------------------------------------------------------
E------------------------------------------------------------------

Verses:

...miles from nowhere            ...Dont matter to me
E------------------8-5---------------------------------------------
B----------------------8p5---5------------------------8-5----------
G--------------------------7------------------------------7p5---5--
D-------------------------------------------------------------7----
A------------------------------------------------------------------
E------------------------------------------------------------------


...miles from nowhere          ...I want to be
E------------------8-5-------------------------------3~~~~~~-------
B----------------------8p5---5-------------------3-----------------
G--------------------------7-----------------4---------------------
D------------------------------------------5---5---5---------------
A------------------------------------------------------------------
E------------------------------------------------------------------


First Solo:

E--10\8\5-3p0-3p0--------10\8/10\8\5-------10\8\5----8-7-5---------
B--10\8\5---------3h5~~~-10\8/10\8\5-8h5-8-10\8\5---x------8-------
G--------------------------------------------------x---------------
D------------------------------------------------------------------
A------------------------------------------------------------------
E------------------------------------------------------------------

E----8-5---------7-------------7h8p7-5h7p5\3-3h5p3\1-1h3p1p0-------
B---x----6-----6---8-10-8---8--------------------------------------
G--x-------7-5------------9----------------------------------------
D------------------------------------------------------------------
A------------------------------------------------------------------
E------------------------------------------------------------------

Second Solo:

E--8~~~~--5-7p5---5----7---7--10p7----7-7h8p7--7--7---12/13--------
B---------------8---6--8---8-------10------------------------------
G------------------------------------------------------------------
D------------------------------------------------------------------
A------------------------------------------------------------------
E------------------------------------------------------------------

E--13/15\13-13p12-13\----15-17-19-17-15----------------------------
B-----------------------x---------------17-15-----15---------------
G----------------------x----------------------16b----16-17~~~------
D------------------------------------------------------------------
A------------------------------------------------------------------
E------------------------------------------------------------------

E------------------------------------------------------------------
B-------------------------12h13-12h13-12h13p12-13-13-13\-----------
G--17-17p16-16-16\14-14\-------------------------------------------
D------------------------------------------------------------------
A------------------------------------------------------------------
E------------------------------------------------------------------

E------17-----------------------5-5-5/7-7/8--8/10--10/12--12-12----
B--15b---15br13-12\10-10\-5---6-6-6-6/8-8/10-10/12-12/13--13-13----
G------------------------------------------------------------------
D------------------------------------------------------------------
A------------------------------------------------------------------
E------------------------------------------------------------------

E--15--13--12-15--13--12----------------------17-------------------
B------------------------13h15-15~~~~\--15b-----15b-13-13h15-15~~~\
G------------------------------------------------------------------
D------------------------------------------------------------------
A------------------------------------------------------------------
E------------------------------------------------------------------

E----------------------17------------------------------------------
B-12h13p12~~~~~\--15b----15b-12-12h13p12---------------------------
G----------------------------------------14-12-14\-5h6p5-6/8\6\5---
D------------------------------------------------------------------
A------------------------------------------------------------------
E------------------------------------------------------------------

E----------5--7--8/10-12--13-15-12-13/15-15\12-12-13-15p13p12------
B--6/8-8-8---------------------------------------------------------
G------------------------------------------------------------------
D------------------------------------------------------------------
A------------------------------------------------------------------
E------------------------------------------------------------------

E--------------------------------------------------------17--17\15-
B--15p13p12-13h15/17~~~~~\-15b-13p12-12h13p12\10~~~\-15b-----17\15-
G------------------------------------------------------------------
D------------------------------------------------------------------
A------------------------------------------------------------------
E------------------------------------------------------------------

E------------------------------------------------------------------
B--13-15-15\13\12~~~~~-------13/15\13\12-12\10-10-10h12p10-8h10p8--
G-----------------------14-12--------------------------------------
D------------------------------------------------------------------
A------------------------------------------------------------------
E------------------------------------------------------------------

E----------------------------------------------------5-7--8--------
B--6h8p6-5h6p5--------------------------------------x-------8------
G---------------7b-7b5-----5-5h7p5~~~~~-5h6p5~~~~--x----------10\8~
D----------------------7-5-----------------------------------------
A------------------------------------------------------------------
E------------------------------------------------------------------

E---------12-15---12-15----12-15----12-15----12-15----12-15----12--
B~~\---13-------13------13-------13-------13-------13-------13-----
G------------------------------------------------------------------
D------------------------------------------------------------------
A------------------------------------------------------------------
E------------------------------------------------------------------

E--15p13p12----12-13p12----12--------------------------------------
B-----------15----------15----15-13p12-12p13p12-14-13p12-----------
G------------------------------------------------------------------
D------------------------------------------------------------------
A------------------------------------------------------------------
E------------------------------------------------------------------
            
Submit corrections


        A Thousand Miles From Nowhere lessons Hard to play? Try these video lessons and learn fast A Thousand Miles From Nowhere lessons
        
↑ Back to top | Tablatures and chords for acoustic guitar and electric guitar, ukulele, drums are parodies/interpretations of the original songs. You may use it for private study, scholarship, research or language learning purposes only