» » »

Dwight Yoakam - I Sang Dixie Tabs

Artists:  A B C D E F G H I J K L M N O P Q R S T U V W X Y Z # 

I Sang Dixie Tabs

(ver. 1) Click to play this song!
Dwight Yoakam
 Rating:
4/5 (4 votes)

 I Sang Dixie lessons Tabs too difficult? Try these video lessons and learn fast
 
                I Sang Dixie Lead:
e------------------------------------------------------------
b-9h10p9--------9h10p9-----9--9h10p9-------------------------
g--------11-9-9--------11-9----------11-9-9--11^b(13)r(11)-7-
d------------------------------------------------------------
a------------------------------------------------------------
e------------------------------------------------------------

e-------------------------------------
b-10--------9h10p9----9--9h10p9-------
g---9-------------11-9---------11-9---
d----9-7----------------------------13
a-------------------------------------
e-------------------------------------
            
Submit corrections


        I Sang Dixie lessons Hard to play? Try these video lessons and learn fast I Sang Dixie lessons
        
↑ Back to top | Tablatures and chords for acoustic guitar and electric guitar, ukulele, drums are parodies/interpretations of the original songs. You may use it for private study, scholarship, research or language learning purposes only