» » »

Dwight Yoakam - Pocket Of A Clown Tabs

Artists:  A B C D E F G H I J K L M N O P Q R S T U V W X Y Z # 

Pocket Of A Clown Tabs

(ver. 1) Click to play this song!
Dwight Yoakam
 Rating:
4/5 (4 votes)

 Pocket Of A Clown lessons Tabs too difficult? Try these video lessons and learn fast
 
                Dwight Yoakam Pocket of a Clown Solo
Album This Time





-------------------9---7---------5---4---5------4---------
-5------5//17---------------------------------------------
------------------(9)R-7(B)-(R)--6---4/6---6/4----4/6-----
----------------------------------------------------------
----------------------------------------------------------
----------------------------------------------------------

              (Vibr.W/ bar)
5----------0---(0)---------7-7--7--7/12--12/16--12-------
---------------------------7-7--7--7/12--12/16--12-------
--6/4------1---(1)---------------------------------------
---------------------------------------------------------
---------------------------------------------------------
---------------------------------------------------------
                                                        
                                                        
12------------------------------------------12-12-12--12-
----12------9-------------------------12-14--------------
--------13----9---------14-----12(H)13-------------------
----------------9----14----14----------------------------
------------------11-------------------------------------
---------------------------------------------------------



9(H)10---9---12----------------------9--------------------
----12--12---12----------12--------7--10-10--9-9--7-7-5-5-
----------------14--12(H)13------9------------------------
----------------------------14/9--------------------------
----------------------------------------------------------
----------------------------------------------------------


----------------------------------------------------------
-----------8----------------------------------------------
6----9----10----------------------------------------------
----------------------------------------------------------
----------------------------------------------------------
----------------------------------------------------------
            
Submit corrections


        Pocket Of A Clown lessons Hard to play? Try these video lessons and learn fast Pocket Of A Clown lessons
        
↑ Back to top | Tablatures and chords for acoustic guitar and electric guitar, ukulele, drums are parodies/interpretations of the original songs. You may use it for private study, scholarship, research or language learning purposes only