Home » D » Dwight Yoakam »

Dwight Yoakam - Guitars Cadillacs Tabs

Artists:  A B C D E F G H I J K L M N O P Q R S T U V W X Y Z # 

Guitars Cadillacs Tabs

(ver. 2) Click to play this song!
Dwight Yoakam
Axehappy originally tabbed this (and nailed it I might add).  I have
changed only a few things.  I posted this to give you guys a
sound byte to help you learn the song.  I think this is a very cool
solo.  Let me know if you have any questions.  


SUBMITTED FOR countrytabs.net ONLY!!  DO NOT POST ELSEWHERE!


E-----------5-7-9--9-7--5----12-14-16-16--16--16--16--16-14\-
B--2-3-4/5---------------------------------------------------
G-2-4-5-/6--6-7-9b-9-7-6--/13---14-16-16b-16b-16--16b-16-14\-
D------------------------------------------------------------
A------------------------------------------------------------
E------------------------------------------------------------

E-----------------12---------------5------------------------
B-12--------------------------10\---------------------------
G---14p13-------9-----b11rp9---------b7r----2---------------
D--------14\11-9-9-----------------------7\---4-2-----------
A-------------------------------------------------2br-2br-0-
E-----------------------------------------------------------

            
Submit corrections

↑ Back to top | Tablatures and chords for acoustic guitar and electric guitar, ukulele, drums are parodies/interpretations of the original songs. You may use it for private study, scholarship, research or language learning purposes only