» » »

Dream Theater - Fatal Tragedy Tabs

Artists:  A B C D E F G H I J K L M N O P Q R S T U V W X Y Z # 

Fatal Tragedy Tabs

(ver. 3) Click to play this song!
Dream Theater
 Rating:
4/5 (4 votes)

 Fatal Tragedy lessons Tabs too difficult? Try these video lessons and learn fast
 
                


Guitar Tablature for: Fatal Tragedi / Dream Theater as in "Scenes From A Memory"


Key to TAB:

h    - hammer on           /    - slide up
p    - pull off            ~    - vibrato
\    - slide down          b    - bend
/w   - whammy bar up       7b8  - bend from the current note until the next note

\w   - whammy bar down     (12) - harmonic    
 

 

First of all i would like to say that this is one HELL of a solo, the best on the disc by my opinion. im 100% sure i have mistakes, and on some parts i just wrote similar in scale lines. so here it is...

 

 

E||---------------------------------------------------------------||
B||---------------------------------------------------------------||
G||---------------------------------------------------------------||
D||---------------------------------------------------------------||
A||----------------------12h14h15h17p15p14------------------------||
E||-12h14h15h17p15p14-------------------------12h14h15h17p15p14---||

 

 

E||---------------------------------------------------------------||
B||---------------------------------------------------------------||
G||---------------------------------------------------------------||
D||---------------------------------------------------------------||
A||-12h14h15h17p15p14-------------------------12h14h15h17p15p14---||
E||----------------------12h14h15h17p15p14------------------------||

 

 

E||---------------------------------------------------------------||
B||---------------------------------------------------------------||
G||----------------------------------------------------14---------||
D||----------------------14-14-16-17-16-14----14-16-17----17-16---||
A||-15-15-17-19-17-15---------------------------------------------||
E||---------------------------------------------------------------||

 


E||---------------------------------------------------------------||
B||----------15-----------------------------------------17--------||
G||----16-17----17-16-------------14-----------16-17-19----19-17--||
D||-14-------------------14-16-17----17-16------------------------||
A||---------------------------------------------------------------||
E||---------------------------------------------------------------||

 

 

E||----------------------------------------------------17---------||
B||-------------------------17-19-20-19-17----17-19-20----20-19---||
G||----------14----------19---------------------------------------||
D||-14-16-17----17-16---------------------------------------------||
A||---------------------------------------------------------------||
E||---------------------------------------------------------------||

 


E||-------17-19p17------------------------------------------------||
B||-19-20----------20-19\w----19-19-19-20h23p20p19----19----19\w--||
G||------------------------------------------------21----21-------||
D||---------------------------------------------------------------||
A||---------------------------------------------------------------||
E||---------------------------------------------------------------||

 


E||-------------------------------21---------------------------------||
B||-19-19-19-20h23p20p19----19--------19-19-19h20p19--17-17-17h19p17-||
G||----------------------21----21------------------------------------||
D||------------------------------------------------------------------||
A||------------------------------------------------------------------||
E||------------------------------------------------------------------||

 

 

E||--------------------------------------------------------------------||
B||-15-15-15h17p15---14-14-14h15p14---12-12-12h14p12---11-11-11h12p11--||
G||--------------------------------------------------------------------||
D||--------------------------------------------------------------------||
A||--------------------------------------------------------------------||
E||--------------------------------------------------------------------||

 


E||-----------------------------------------------------------------||
B||----------------------------------------7h8~---7---7h8p7---7-----||
G||-12-12-12h15p12-7h8p7----9b11-9b11-9-------------9-------9---9---||
D||-----------------------------------------------------------------||
A||-----------------------------------------------------------------||
E||-----------------------------------------------------------------||

 


E||-----------------------------------------------------------------------||
B||-----------------------------------------------12-15-13p15p13p11-------||
G||-----------------------------------------12h14-------------------14-12-||
D||-------------------------9-12-10-9-12/14-------------------------------||
A||-12p10----12-10-------10-----------------------------------------------||
E||-------12-------10h12--------------------------------------------------||

 


E||-------------------------------------------------------------------------||
B||-------------------------12-14-12-11-12-14-12-11-------------------------||
G||--11-12-11-9-11-12-11-9---------------------------11-12-11--9-11-12-11-9-||
D||-------------------------------------------------------------------------||
A||-------------------------------------------------------------------------||
E||-------------------------------------------------------------------------||

 


E||--------------------------------------------------10-12-10-9-10-12-10----||
B||--14-15-14-12-14-15-14-12------------------------------------------------||
G||---------------------------11-12-11-9-11-12-11-9-------------------------||
D||-------------------------------------------------------------------------||
A||-------------------------------------------------------------------------||
E||-------------------------------------------------------------------------||

 


E||--14-15-14-12-14-15-14----------------------------------------------||
B||--------------------------------------------------------------------||
G||------------------------11-12-11-9-11-12-11-9-----------------------||
D||--------------------------------------------------------------------||
A||--------------------------------------------------------------------||
E||-----------------------------------------------(12)-(12)-(12)-(12)--||

 


E||--------------------------------------------------------------------||
B||--------------------------------------------------------19-19-19-19-||
G||--------------------------------------------------------------------||
D||-------------------------------------------21-21-21-21--------------||
A||----------------------(19)-(19)-(19)-(19)---------------------------||
E||-(19)-(19)-(19)-(19)------------------------------------------------||

 


E||-------------19-19-19-19-------------21-21-21-21-22-21-19-18-------18-||
B||-17-17-17-17-------------19-19-19-19-------------------------20-19----||
G||----------------------------------------------------------------------||
D||----------------------------------------------------------------------||
A||----------------------------------------------------------------------||
E||----------------------------------------------------------------------||

 


E||----------------------------------------------------------------------||
B||-20-19-17-------19-17----------------17-------------------------------||
G||----------19-18-------19-18-16-18-19----19-18-16----------------------||
D||-------------------------------------------------19-17-16-------------||
A||----------------------------------------------------------19-17-16----||
E||-------------------------------------------------------------------19-||

 


E||----------------------18h21p18--------------------------------------||
B||-------------------19---------19------------------------------------||
G||----------------18---------------18---------------------------------||
D||-------------16---------------------20------------------------------||
A||----------16---------------------------21---------------------------||
E||-17-15-14----------------------------------21-18-15-14----19-21-22--||

 


E||-----------------------------------------21-22-24--||
B||-------------------------------20-22-24------------||
G||---------------------19-21-23----------------------||
D||-----------19-21-23--------------------------------||
A||-19-21-22------------------------------------------||
E||---------------------------------------------------||

 

 

E||----------------17-------------------------17/19-17-----17-19-20--||

B||-17/19-19p17-------19-17-19-17/19-19p17-------------19------------||

G||-------------18-------------------------18------------------------||

D||------------------------------------------------------------------||

A||------------------------------------------------------------------||

E||------------------------------------------------------------------||

 

 

E||-19-17-20-19-------17---------------------------------------------||

B||-------------19-17----19-17-16-19-17------------------------------||

G||--------------------------------------17-16-14-16-17-16-14-17-16--||

D||------------------------------------------------------------------||

A||------------------------------------------------------------------||

E||------------------------------------------------------------------||

 

 

E||------------------------------------||

B||------------------------------------||

G||--------14--------------------------||

D||--16-14----16-14-13-16-14-13--------||

A||-----------------------------15-12--||

E||------------------------------------||

 

Well, that's all i know, if you would like to add some comments, corrections etc. mail them to me. See ya...
            
Submit corrections


        Fatal Tragedy lessons Hard to play? Try these video lessons and learn fast Fatal Tragedy lessons
        
↑ Back to top | Tablatures and chords for acoustic guitar and electric guitar, ukulele, drums are parodies/interpretations of the original songs. You may use it for private study, scholarship, research or language learning purposes only