» » »

Dream Theater - The Ytse Jam Bass

Artists:  A B C D E F G H I J K L M N O P Q R S T U V W X Y Z # 

The Ytse Jam Bass

(ver. 1) Click to play this song!
Dream Theater
 Rating:
4/5 (4 votes)

 The Ytse Jam lessons Tabs too difficult? Try these video lessons and learn fast
 
                (1)
YTSEJAM

				              DREAM THEATER
						

					 COMPLETE BASS TABLATURE



Key:
 **  =  let ring
 ~   =  slide down
 /   =  slide


Intro
G--9------3----2----3-----------------------------
D--9------3----2----1-----------------------------
A--7------1----0----------------------------------
E--0----------------------------------------------

Step 1 
G----------------------------------------------------------------------------------
D--12-11-12-0---14-12-14-0---15-14-15--17-16-17---15-14-15---14-12-14---12-11-12-0-
A----------------------------------------------------------------------------------
E----------------------------------------------------------------------------------

G----------------------------------------------------------------------------------
D----------------------------------------------------------------------------------  x 6
A--13-12-13---12-10-12---10-8-10---8-7-8-------------------------------------------
E----------------------------------------------------------------------------------

at the 4th time, play this: 
G----------------------------------------------------------------------------------
D--12-11-12-0---14-12-14-0---15-14-15---17-16-17---15-14-15---14-12-14---12-11-12-0
A----------------------------------------------------------------------------------
E----------------------------------------------------------------------------------

G----------------------------------------------------------------------------------
D-------------15-17-19---20-19-20--19-17-19----------------------------------------
A--14-15-17------------------------------------------------------------------------
E----------------------------------------------------------------------------------

Step 2
G----------------------------------------------------------------------------------
D----------------------------------------------------------------------------------
A--0-0-0-0-0-0--1-----0-0-0-0-0-0--1--4---0-0-0-0-0-0-1----------------------------
E------------------4-------------------------------------4-------------------------

G-------------------------------------------1---------------------1--2--4--5-------
D-----------0--2--3--2(x7)--3--0--2(x6)--3-----2(x6)--3--0--2--3-------------------  x 3
A--0--1--4-------------------------------------------------------------------------
E----------------------------------------------------------------------------------
play it 3 times and then:

G----------------------------------------------------------------------------------
D----------------------------------------------------------------------------------
A--12-11-12-0---13-12-13-0---16-15-16---17-16-17---16-15-16---13-12-13---12-11-12-0
E----------------------------------------------------------------------------------

G----------------------------------------------------------------------------------
D--15-14-15---14-12-14---12-10-12--------------------------------------------------
A----------------------------------------------------------------------------------
E----------------------------------------------------------------------------------

G----------------------------------------------------------------------------------
D----------------------------------------------------------------------------------
A----------------------------------------------------------------------------------
E--12-11-12-0---13-12-13-0---16-15-16---17-16-17---16-15-16---13-12-13---12-11-12-0

G----------------------------------------------------------------------------------
D----------------------------------------------------------------------------------
A--15-14-15---14-12-14---12-10-12--------------------------------------------------
E----------------------------------------------------------------------------------

Now, play Step 1 twice, then:

Step 3
G----------------------------------------------------------------------------------
D--0----2----3-------3--------0----------------------------------------------------  x2
A------------------------3---------1---0-------------------------------------------
E----------------3------------------------3--1-------------------------------------

G----------------------------------------------------------------------------------
D-----------------------0-0-0-0-8-8--0-0-7-7--0-0-5-5--0-0-3-----------------------
A--5--3---0------0---3----------------------------------------3--5-----------------
E------------3---------------------------------------------------------------------

G----------------------------------------------------------------------------------
D----------------------------------------------------------------------------------
A--5--3--0-------0--3--5-----------------------------------------------------------
E------------3---------------------------------------------------------------------

the fast part:
G----------------------------------------------------------------------------------
D----------------------------------------------------------------------------------
A--13-12-13--12-10-12--10-8-10--8-7-8--7-5-7--5-3-5--3-2-4-0-----------------------
E----------------------------------------------------------------------------------

Step 4
G-----------------------------------------------------------------3/2--------------
D-----------------------------------------------3-3-3-3-2-2-2-2-------3/2----------  x4
A--0----1-0----1-1-1-1-3-3-3-3-5-5-5-5-4-4-4-4-----------------------------0-------
E----------------------------------------------------------------------------------

in the last one, play this:
G----------------------------------------------------------------------------------
D-----------------------------------------------3-3-3-3--5**------------2/3--------
A--0----1-0----1-1-1-1-3-3-3-3-5-5-5-5-4-4-4-4-------------------------------3/2-0-
E----------------------------------------------------------------------------------

Step 5 (during the keyboard solo)
G----------------------------------------------------------------------------------
D---------------------8/7--------------------------8/7-----------------------------  x4
A--0-0-0-0-0-0-1-1-1-------8/7-0-0-0-0-0--8-7-7-7-------8/7-0----------------------
E----------------------------------------------------------------------------------

Step 6 (during the guitar solo)
G----------------------------------------------------------------------------------
D----------------------------------------------------------------------------------  x4
A----------------------4--2-4-2----------------------10-9-10-9-------11------------
E--3-3-3-3-3-3--4-4-4------------5---3-3-3-3-3-3-9--------------10-9----------------




Step 7					BASS SOLO

--14-14-14-141415-15-15-15-15-1516-16-1618-18-1818-18-17192019-171919---19-------

------------------------------------17--------------------14161619171517---------
--------------20191719----------1619--201920-171514151517---------------19171715-
-17-171717-17---------20-171820--------------------------------------------------
                        |     |
-----16171916--16--|-|----------------|-|                 
-1919--------19----|-|.-191517211517-.|-|
-------------------|-|.--------------.|-|
-------------------|-|----------------|-|




[Drums solo...]



Step 8 (after the drums solo)
G---------------5-4------------------------------------
D----0--3--7--6-----3----------------------------------
A--0------------------4-4-4~---------------------------
E------------------------------------------------------

G---------------5-4------------------------------------
D----0--3--7--6-----0-3-7-5~---------------------------  x2
A--0---------------------------------------------------
E------------------------------------------------------


(there is a pause about 10 seconds)

            Here a detail: the "Nx" means you
            have to play "N" times the part above indicated.

Step 9
G------|-----|-------------------------------------------
D------|-----|-3~------------2~--------3-3-3---7--1-2-2--
A---7--|--5--|-----3-3-3-3-------2-2---------------------
E------|-----|-------------------------------------------
    9x    9x

This fill, goes to the "fast" part
G-------2-1-5-4-----------------------------------------
D---0-3---------3---------------------------------------
A-0-----------------------------------------------------
E-------------------------------------------------------

The "fast" part
G--9-|-10-|-12-|-14-|-16-|-14-|-17-|-19-|----|-------
D----|----|----|----|----|----|----|----|----|-------
A----|----|----|----|----|----|----|----|----|-------
E----|----|----|----|----|----|----|----|-0--|-------
  6x   6x   6x   6x   6x   4x   5x   5x   Nx


G-7-7-7-------|----|--7-7-7-----|-----|--4--|
D-------------|----|------------|-----|-----|
A-------7-7-7-|----|---------7--|--8--|-----|
E-------------|-0--|------------|-----|-----|
                Nx           Nx   Nx    6x


G--2--|--9---|--10-|-2--|-0-|----|-----|-----|-4-|--2-|
D-----|------|-----|----|---|----|-----|--3--|---|----|
A-----|------|-----|----|---|--7-|-5---|-----|---|----|
E-----|------|-----|----|---|----|-----|-----|---|----|
   4x    12x    Nx   6x   4x  12x  12x   12x   6x  6x

G-----|---|----|-3-|-2-|-----|---|---|
D-----|---|-3--|---|---|-----|---|-3-|
A--7--|-5-|----|---|---|--7--|-5-|---|
E-----|---|----|---|---|-----|---|---|
   12x 12x  12x  6x  6x  12x  12x  12x

G----------------------------------------------------------------------------------
D----------------------------------------------------------------------------------
A--7-7--7-5--7-7--7-8--7-7--7-5--7-7--7-8------------------------------------------
E----------------------------------------------------------------------------------


Repeat Step 1 twice, with this part at the end:
G----------------------------------------------------------------------------------
D----------------------------------------------------------------------------------
A--13-12-13--12-10-12--10-8-10--8-7-8--7-5-7--5-3-5--3-2-4-------------------------
E----------------------------------------------------------------------------------

G-------------------------------------------------------
D----------1-------0-------6~---------------------------
A--0----------------------------------------------------
E-------------------------------------------------------

G---------------5-4------------------------------------
D----0--3--7--6-----3----------------------------------
A--0------------------4-4-4~---------------------------
E------------------------------------------------------
            
Submit corrections


        The Ytse Jam lessons Hard to play? Try these video lessons and learn fast The Ytse Jam lessons
        
↑ Back to top | Tablatures and chords for acoustic guitar and electric guitar, ukulele, drums are parodies/interpretations of the original songs. You may use it for private study, scholarship, research or language learning purposes only