» » »

Dream Theater - Fatal Tragedy Tabs

Artists:  A B C D E F G H I J K L M N O P Q R S T U V W X Y Z # 

Fatal Tragedy Tabs

(ver. 1) Click to play this song!
Dream Theater
 Rating:
4/5 (4 votes)

 Fatal Tragedy lessons Tabs too difficult? Try these video lessons and learn fast
 
                
John Petrucci
                                                                               

                                                                               
-------------------|----------6--------|--6----------------|------------------|
-------------------|-------------------|-------------------|------------------|
--4----------------|-------------------|-------------------|------------------|
--2----------------|----------8--------|--8----------------|------------------|
--2----------------|----------7--------|--7----------------|------------------|
--0----------------|-------------------|-------------------|------------------|


                                                                 
---------------------|----------------------|-------------------|
----------------4----|----------------4-----|-------------------|
--4--------4---------|--4--------4----------|-------------------|
--4------------------|--4-------------------|-------------------|
--2------------------|--0----------------0--|-------------------|
---------------------|----------------3-----|--3----------------|


                                                                  
----------------------|----------------------|-------------------|
----------------------|----------------------|-------------------|
----------------------|-----------------4----|--3----------------|
----------------------|----------------------|-------------------|
-----4--5----2--------|---------4--5----2----|--1----------------|
--0--2--3----0--------|------0--2--3---------|-------------------|


                                                                       
------------------------|----------------------|----------------------|
------------------------|----------------------|----------------------|
-------------0----------|----------------------|-----------------4----|
----------2-------------|----------------------|----------------------|
----1--4--------4-------|-----4--5----2--------|---------4--5----2----|
-------------------3----|--0--2--3----0--------|------0--2--3---------|


                                                                   
-------------------|------------------------|---------------------|
--2----------------|------------------------|----------------4----|
-------------------|----------0--3----------|--4--------4---------|
-------------------|-------2--------2-------|--4------------------|
--4----------------|----4--------------1----|--2------------------|
-------------------|------------------------|---------------------|


                                                                                
---------------------|-----------|----------------------|----------------------|
----------------4----|-----------|----------------------|----------------------|
--4--------4---------|-----------|----------------------|-----------------4----|
--4------------------|--2--------|----------------------|----------------------|
--0------------------|-----------|-----4--5----2--------|---------4--5----2----|
---------------------|--3--------|--0--2--3----0--------|------0--2--3---------|


                                                                    
-------------------|------------------------|----------------------|
-------------------|------------------------|----------------------|
--3----------------|------------------------|----------------------|
-------------------|----------2--5----------|----------------------|
--1----------------|----1--4--------4-------|-----4--5----2--------|
-------------------|-------------------3----|--0--2--3----0--------|


                                                                     
----------------------|-------------------|-------------------------|
----------------------|--2----------------|-------------------------|
-----------------4----|-------------------|-------------3-----------|
----------------------|-------------------|-------2--5-----2--------|
---------4--5----2----|--4----------------|----4--------------4--1--|
------0--2--3---------|-------------------|-------------------------|


                                                                  
---------------------|---------------------|---------------------|
----------------4----|----------------4----|---------------------|
--4--------4---------|--4--------4---------|---------------------|
--4------------------|--4------------------|--2------------------|
--2------------------|--0------------------|---------------------|
---------------------|---------------------|--3------------3--2--|


                                                                               
-------------------|-------------------|------------------|-------------------|
-------------------|-------------------|------------------|-------------------|
-------------------|--4----------------|------------------|-------------------|
--2----------------|--4----------------|------------------|--4----------------|
--2----------------|--2----------------|------------------|--4----------------|
--0----------------|-------------------|------------------|--2----------------|


                                                                              
------------------|-------------------|------------------|-------------------|
------------------|-------------------|------------------|-------------------|
------------------|-------------------|------------------|-------------------|
------------------|--2----------------|------------------|--2----------------|
------------------|--2----------------|------------------|--2----------------|
------------------|--0----------------|------------------|--0----------------|


                                                                 
------------------|---------------------|-----------------------|
------------------|---------------------|-----------------------|
------------------|---------------------|-----------------------|
------------------|------------2--------|--------------2--------|
------------------|--2---------2--------|--------------2--------|
------------------|--0------0--0--------|--0--0--0--0--0--------|


                                                                  
---------------------|---------------------|---------------------|
---------------------|---------------------|---------------------|
---------------------|---------------------|---------------------|
------------2--------|------------2--------|---------------------|
--1---------1--------|------------1--------|--4------------------|
--0------0--0--------|------0--0--0--------|--2------------2--4--|


                                                                
---------------------|-------------------|---------------------|
---------------------|-------------------|---------------------|
--2------------------|-------------------|---------------------|
--2------------------|--6----------------|--6------------------|
--0------------0--2--|--4----------------|--7------------------|
---------------------|-------------------|--4------------4--5--|


                                                                
-------------------|-------------------------|-----------------|
-------------------|-------------------------|-----------------|
--4----------------|-------------------------|-----------------|
--4----------------|-------------------------|-----------------|
--2----------------|--2----0--4--2--4--------|--4--------------|
-------------------|-------------------4--0--|--2--------2--4--|


                                                                  
-----------------|---------------|---------------|---------------|
-----------------|---------------|---------------|---------------|
-----------------|---------------|---------------|--2------------|
--2--------------|--6------------|--2------------|--2------------|
--0--------0--2--|--4------------|---------------|--0------------|
-----------------|---------------|--4------------|---------------|


                                                                     
-----------------------|----------|----------------------|----------|
-----------------------|----------|----------------------|----------|
------------------4----|----------|----------------------|----------|
--2---1-----------4----|----------|----------------1--4--|----------|
----------2-------2----|----------|--0--2--3--2----------|----------|
--------------4---2----|----------|----------------------|----------|


                                                                        
----------------------|--12b---15----|----------------------|----------|
----------------------|--14b---17----|----------------------|----------|
----------------0--4--|--------------|----------------------|----------|
--1--2--4--2----------|--------------|-------------------4--|----------|
----------------------|--------------|--0-------------6-----|----------|
----------------------|--------------|-----7--8--7----------|----------|


                                                    
----------------------|--15h14h-15h14h15h-14-------|
-------------------0--|--17h16h-17h16h17h-16-17----|
----------------------|----------------------16----|
--1--2--4--2----5-----|----------------------------|
----------------------|----------------------------|
----------------------|----------------------------|


                                                             
---------------------------------|--------------------------|
---------------------------------|--------------------------|
---------------------------------|--------------------------|
--7---------5--------------------|--------------------------|
-------------------------0-------|--2-2-2--2------2-2-2--2--|
-----7-7-5-----5--3--2-3---3-2-3-|--0-0-0--0------0-0-0--0--|


                                                       
---------------------------|--------------------------|
---------------------------|--------------------------|
---------------------------|--------------------------|
---------------------------|--------------------------|
------2-2-2--2-2-2--2-2-2--|--2-2-2--2------2-2-2--2--|
------0-0-0--0-0-0--0-0-0--|--0-0-0--0------0-0-0--0--|


                                                       
---------------------------|--------------------------|
---------------------------|--------------------------|
---------------------------|--------------------------|
---------------------------|--------------------------|
------2-2-2--2-2-2--2-2-2--|--2-2-2--2------2-2-2--2--|
------0-0-0--0-0-0--0-0-0--|--0-0-0--0------0-0-0--0--|


                                                       
---------------------------|--------------------------|
---------------------------|--------------------------|
---------------------------|--------------------------|
---------------------------|--------------------------|
------2-2-2--2-2-2--2-2-2--|--2-2-2--2------2-2-2--2--|
------0-0-0--0-0-0--0-0-0--|--0-0-0--0------0-0-0--0--|


                                                       
---------------------------|--------------------------|
---------------------------|--------------------------|
---------------------------|--------------------------|
---------------------------|--------------------------|
------2-2-2--2-2-2--2-2-2--|--2-2-2--2------2-2-2--2--|
------0-0-0--0-0-0--0-0-0--|--0-0-0--0------0-0-0--0--|


                                                       
---------------------------|--------------------------|
---------------------------|--------------------------|
---------------------------|--------------------------|
---------------------------|--------------------------|
------2-2-2--2-2-2--2-2-2--|--2-2-2--2------2-2-2--2--|
------0-0-0--0-0-0--0-0-0--|--0-0-0--0------0-0-0--0--|


                                                        
---------------------------|---------------------------|
---------------------------|---------------------------|
---------------------------|---------4--4--------------|
---------------------------|---------2--2--------------|
------2-2-2--2-2-2--2-2-2--|--2-2-2----------2-2-2--2--|
------0-0-0--0-0-0--0-0-0--|--0-0-0----------0-0-0--0--|


                                                       
---------------------------|--------------------------|
---------------------------|--------------------------|
---------------------------|--------------------------|
---------------------------|---------2----------------|
------2-2-2--2-2-2--2-2-2--|--2-2-2--2------2-2-2--2--|
------0-0-0--0-0-0--0-0-0--|--0-0-0--0------0-0-0--0--|


                                                       
---------------------------|--------------------------|
---------------------------|--------------------------|
---------------------------|--------------------------|
---------------------------|---------4----------------|
------2-2-2--2-2-2--2-2-2--|--2-2-2--4------2-2-2--2--|
------0-0-0--0-0-0--0-0-0--|--0-0-0--0------0-0-0--0--|


                                                       
---------------------------|--------------------------|
---------------------------|--------------------------|
---------------------------|--------------------------|
---------------------------|---------3----------------|
------2-2-2--2-2-2--2-2-2--|--2-2-2--5------2-2-2--2--|
------0-0-0--0-0-0--0-0-0--|--0-0-0--0------0-0-0--0--|


                                                       
---------------------------|--------------------------|
---------------------------|--------------------------|
---------------------------|--------------------------|
---------------------------|--------------1-----2--4--|
------2-2-2--2-2-2--2-2-2--|--2--3--0--2-----2--------|
------0-0-0--0-0-0--0-0-0--|--------------------------|


                                                      
--------------------------|--------------------------|
-----5--4-----------------|--------------------------|
--------------------------|--------------------0--2--|
--------------------------|--------------1-----------|
--2--------2--3--2--0--2--|--0--3--0--2-----2--------|
--------------------------|--------------------------|


                                                      
--------------------------|--------------------------|
--------------------------|--------------------------|
--------------------------|--------------------2--4--|
-----2--1-----------------|--------------1-----------|
--2--------2--3--2--0--2--|-----3--0--2-----2--------|
--------------------------|--3-----------------------|


                                                      
--------------------------|--------------------------|
--------------------------|--------------------------|
--------------------------|--------------------------|
-----2--1-----------------|--------------------4--2--|
--2--------2--3--2--0--2--|-----------0--1--2--------|
--------------------------|--0--2--3-----------------|


                                                        
-------------------------------|-----------------------|
-------------------------------|-----------------------|
-------------------------------|--4----4----2----------|
--2--1--0----------------------|-----------------5--4--|
----------4-3-2-1-0------------|-----------------------|
--------------------4-3-2-1-0--|-----------------------|


                                                         
-----------------------------|--------------------------|
----5--4---------------------|--------------------------|
----------4--5--4-5--4-2--0--|-----1--2-----------------|
-----------------------------|--4-----------------------|
-----------------------------|-----------4--3-----2--0--|
-----------------------------|-----------------2--------|


                                                                  
--------------------------|-------------------|------------------|
--------------------------|-------------------|------------------|
--------------------------|-------------------|------------------|
--------------------------|--2----------------|------------------|
-----------4--3--2--------|--2----------------|------------------|
--2--0--2-----------2--3--|--0----------------|------------------|


                                                             
-------------------|------------------|---------------------|
-------------------|------------------|---------------------|
-------------------|------------------|---------------------|
--2----------------|------------------|------------2--------|
--2----------------|------------------|--2---------2--------|
--0----------------|------------------|--0------0--0--------|


                                                                    
-----------------------|---------------------|---------------------|
-----------------------|---------------------|---------------------|
-----------------------|---------------------|---------------------|
--------------2--------|------------2--------|------------2--------|
--------------2--------|--1---------1--------|------------1--------|
--0--0--0--0--0--------|--0------0--0--------|------0--0--0--------|


                                                                
---------------------|---------------------|-------------------|
---------------------|---------------------|-------------------|
---------------------|--2------------------|--6----------------|
--4------------------|--2------------------|--6----------------|
--4------------------|--0------------0--2--|--4----------------|
--2------------2--4--|---------------------|-------------------|


                                                                    
---------------------|-------------------|-------------------------|
---------------------|-------------------|-------------------------|
---------------------|--4----------------|-------------------------|
--6------------------|--4----------------|-------------------------|
--6---------------0--|--2----------------|--2----0--4--2--4--------|
--4------------4-----|-------------------|-------------------4--0--|


                                                                 
----------------------|---------------------|-------------------|
----------------------|---------------------|-------------------|
-----------------2----|---------------------|-------------------|
-----------------2----|------------6--------|------6------------|
--4--------------0----|------0--2--4--------|------7------------|
--2--------2--4-------|---------------------|------4------------|


                                                             
--------------------|--------------------|------------------|
--------------------|--------------------|------------------|
--------------------|-----------4--------|------------------|
--7------------6----|----6------4--------|------------------|
--7------------4----|----6------2--------|------------------|
--5-----------------|----4---------------|------------------|


                                                                  
---------------------|------------------|------------------------|
---------------------|------------------|------------------------|
---------------------|------------------|------------------------|
---------------------|------------------|------------------------|
---------------------|------------------|------------------------|
----------0--2--3----|------------------|----------0-2-3-0--0--0-|


                                                              
------------------------------|------------------------------|
------------------------------|------------------------------|
------------------------------|------------------------------|
------------------------------|------------------------------|
------------------------------|------------------------------|
--0-2-3-0--0--0-0-2-3-0--0--0-|--0-2-3-0--0--0-0-2-3-0--0--0-|


                                                                                
-------------------------------|----------------|------------------------------|
-------------------------------|----------------|------------------------------|
-------------------------------|----------------|------------------------------|
-------------------------------|----------------|------------------------------|
----------------------5------4-|-------3------2-|------------------------------|
--0-2-3-0--0--0-0-2-3----2-3---|---2-3----2-2---|--0-2-3-0--0--0-0-2-3-0--0--0-|


                                                              
------------------------------|------------------------------|
------------------------------|------------------------------|
------------------------------|------------------------------|
------------------------------|------------------------------|
------------------------------|------------------------------|
--0-2-3-0--0--0-0-2-3-0--0--0-|--0-2-3-0--0--0-0-2-3-0--0--0-|


                                                              
------------------------------|------------------------------|
------------------------------|------------------------------|
------------------------------|------------------------------|
------------------------------|------------------------------|
--------5------4------3----2--|------------------------------|
--0-2-3----0-3----0-3----0----|--0-2-3-0--0--0-0-2-3-0--0--0-|


                                                              
------------------------------|------------------------------|
------------------------------|------------------------------|
------------------------------|------------------------------|
------------------------------|------------------------------|
------------------------------|------------------------------|
--0-2-3-0--0--0-0-2-3-0--0--0-|--0-2-3-0--0--0-0-2-3-0--0--0-|


                                                               
------------------------------|-------------------------------|
------------------------------|-------------------------------|
------------------------------|-------------------------------|
------------------------------|-------------------------------|
--------5------4------3----2--|--2-2-2-2--2-2-2-2--2-2-2-2--2-|
--0-2-3----0-3----0-3----0----|--0-0-0-0--0-0-0-0--0-0-0-0--0-|


                                                               
-------------------------------|------------------------------|
-------------------------------|------------------------------|
-------------------------------|------------------------------|
-------------------------------|------------------------------|
--2-2-2--2-2-2--2-2-2-2--2-2-2-|--2--2-2-2-2--2-2-2-2--2-2-2--|
--0-0-0--0-0-0--0-0-0-0--0-0-0-|--0--0-0-0-0--0-0-0-0--0-0-0--|


                                                                
-------------------------------|-------------------------------|
-------------------------------|-------------------------------|
-------------------------------|-------------------------------|
-------------------------------|-------------------------------|
--2-2-2-2--2-2-2-2--2-2-2-2--2-|--2-2-2--2-2-2--2-2-2-2--2-2-2-|
--0-0-0-0--0-0-0-0--0-0-0-0--0-|--0-0-0--0-0-0--0-0-0-0--0-0-0-|


                                                               
------------------------------|-------------------------------|
------------------------------|-------------------------------|
------------------------------|-------------------------------|
------------------------------|-------------------------------|
--2--2-2-2-2--2-2-2-2--2-2-2--|--2-2-2-2--2-2-2-2--2-2-2-2--2-|
--0--0-0-0-0--0-0-0-0--0-0-0--|--0-0-0-0--0-0-0-0--0-0-0-0--0-|


                                                               
-------------------------------|------------------------------|
-------------------------------|------------------------------|
-------------------------------|------------------------------|
-------------------------------|------------------------------|
--2-2-2--2-2-2--2-2-2-2--2-2-2-|--2--2-2-2-2--2-2-2-2--2-2-2--|
--0-0-0--0-0-0--0-0-0-0--0-0-0-|--0--0-0-0-0--0-0-0-0--0-0-0--|


                                                                
-------------------------------|-------------------------------|
-------------------------------|-------------------------------|
-------------------------------|-------------------------------|
-------------------------------|-------------------------------|
--2-2-2-2--2-2-2-2--2-2-2-2--2-|--2-2-2--2-2-2--2-2-2-2--2-2-2-|
--0-0-0-0--0-0-0-0--0-0-0-0--0-|--0-0-0--0-0-0--0-0-0-0--0-0-0-|


                                                        
------------------------------|------------------------|
------------------------------|------------------------|
------------------------------|------------------------|
------------------------------|------------------------|
--2--2-2-2-2--2-2-2-2--2-2-2--|--4-4-----4-4--4-4------|
--0--0-0-0-0--0-0-0-0--0-0-0--|--2-2-----2-2--2-2------|


                                                                           
------------------------|------------------------|------------------------|
------------------------|------------------------|------------------------|
------------------------|------------------------|------------------------|
------------------------|------------------------|------------------------|
--4-4-----4-4--4-4------|--4-4-----4-4--4-4------|--4-4-----4-4--4-4------|
--2-2-----2-2--2-2------|--2-2-----2-2--2-2------|--2-2-----2-2--2-2------|


                                                              
------------------------------|------------------------------|
------------------------------|------------------------------|
------------------------------|------------------------------|
------------------------------|------------------------------|
------------------------------|------------------------------|
--0-2-3-0--0--0-0-2-3-0--0--0-|--0-2-3-0--0--0-0-2-3-0--0--0-|


                                                              
------------------------------|------------------------------|
------------------------------|------------------------------|
------------------------------|------------------------------|
------------------------------|------------------------------|
------------------------------|--------5------4------3----2--|
--0-2-3-0--0--0-0-2-3-0--0--0-|--0-2-3----0-3----0-3----0----|


                                                                           
------------------------|------------------------|------------------------|
------------------------|------------------------|------------------------|
------------------------|------------------------|------------------------|
------------------------|------------------------|------------------------|
--4-4-----4-4--4-4------|--4-4-----4-4--4-4------|--4-4-----4-4--4-4------|
--2-2-----2-2--2-2------|--2-2-----2-2--2-2------|--2-2-----2-2--2-2------|


                                                        
------------------------|------------------------------|
------------------------|------------------------------|
------------------------|------------------------------|
------------------------|------------------------------|
--4-4-----4-4--4-4------|------------------------------|
--2-2-----2-2--2-2------|--0-2-3-0--0--0-0-2-3-0--0--0-|


                                                              
------------------------------|------------------------------|
------------------------------|------------------------------|
------------------------------|------------------------------|
------------------------------|------------------------------|
------------------------------|--------5------4------3----2--|
--0-2-3-0--0--0-0-2-3-0--0--0-|--0-2-3----0-3----0-3----0----|


                                                                        
------------------------------------|----------------------------------|
------------------------------------|----------------------------------|
------------------------------------|----------------------------------|
------------------------------------|----------------------------------|
--4-4-----4-4--4-4------4-4-----4-4-|---4-4------4-4-----4-4--4-4------|
--2-2-----2-2--2-2------2-2-----2-2-|---2-2------2-2-----2-2--2-2------|


                                                              
------------------------------|------------------------------|
------------------------------|------------------------------|
------------------------------|------------------------------|
------------------------------|------------------------------|
------------------------------|--------5------4------3----2--|
--0-2-3-0--0--0-0-2-3-0--0--0-|--0-2-3----0-3----0-3----0----|


                                                  
------------------------|------------------------|
------------------------|------------------------|
------------------------|------------------------|
------------------------|------------------------|
--4-4-----4-4--4-4------|--4-4-----4-4--4-4------|
--2-2-----2-2--2-2------|--2-2-----2-2--2-2------|


                                                                                
------------------------------|------------------------|-----------------------|
------------------------------|------------------------|-----------------------|
------------------------------|------------------------|---------4------4-2----|
------------------------------|------------------------|---------4----------4--|
--------5------4------3----2--|--4-4-----4-4--4-4------|--2--------------------|
--0-2-3----0-3----0-3----0----|--2-2-----2-2--2-2------|-----------------------|


                                                                    
-----------------------|-----------------------|-------------------|
-----------------------|-----------------------|-------------------|
---------4------4-2----|---------4------4-2----|--4----------------|
---------4----------4--|---------4----------4--|--4----------------|
--2--------------------|--2--------------------|--2----------------|
-----------------------|-----------------------|-------------------|


                                                        
------------------------------|------------------------|
------------------------------|------------------------|
------------------------------|------------------------|
------------------------------|------------------------|
--------5------4------3----2--|--4-4-----4-4--4-4------|
--0-2-3----0-3----0-3----0----|--2-2-----2-2--2-2------|


                                                              
------------------------------|------------------------------|
------------------------------|------------------------------|
------------------------------|------------------------------|
------------------------------|------------------------------|
------------------------------|--------5------4------3----2--|
--0-2-3-0--0--0-0-2-3-0--0--0-|--0-2-3----0-3----0-3----0----|


                                                  
------------------------|------------------------|
------------------------|------------------------|
------------------------|------------------------|
------------------------|------------------------|
--4-4-----4-4--4-4------|--4-4-----4-4--4-4------|
--2-2-----2-2--2-2------|--2-2-----2-2--2-2------|


                                                              
------------------------------|------------------------------|
------------------------------|------------------------------|
------------------------------|------------------------------|
------------------------------|------------------------------|
------------------------------|------------------------------|
--0-2-3-0--0--0-0-2-3-0--0--0-|--0-2-3-0--0--0-0-2-3-0--0--0-|


                                                        
------------------------------|------------------------|
------------------------------|------------------------|
------------------------------|------------------------|
------------------------------|------------------------|
--------5------4------3----2--|--4-4-----4-4--4-4------|
--0-2-3----0-3----0-3----0----|--2-2-----2-2--2-2------|


                                                  
------------------------|------------------------|
------------------------|------------------------|
------------------------|------------------------|
------------------------|------------------------|
--4-4-----4-4--4-4------|--4-4-----4-4--4-4------|
--2-2-----2-2--2-2------|--2-2-----2-2--2-2------|


                                                              
------------------------------|------------------------------|
------------------------------|------------------------------|
------------------------------|------------------------------|
------------------------------|------------------------------|
------------------------------|------------------------------|
--0-2-3-0--0--0-0-2-3-0--0--0-|--0-2-3-0--0--0-0-2-3-0--0--0-|


                                                              
------------------------------|------------------------------|
------------------------------|------------------------------|
------------------------------|------------------------------|
------------------------------|------------------------------|
------------------------------|--------5------4------3----2--|
--0-2-3-0--0--0-0-2-3-0--0--0-|--0-2-3----0-3----0-3----0----|


                                                                           
------------------------|------------------------|------------------------|
------------------------|------------------------|------------------------|
------------------------|------------------------|------------------------|
------------------------|------------------------|------------------------|
--4-4-----4-4--4-4------|--4-4-----4-4--4-4------|--4-4-----4-4--4-4------|
--2-2-----2-2--2-2------|--2-2-----2-2--2-2------|--2-2-----2-2--2-2------|


                                                      
------------------------|----------------------------|
------------------------|----------------------------|
------------------------|-----------4--------2-4-----|
------------------------|------------------------5-4-|
--4-4-----4-4--4-4------|--2---2--2-----2--2---------|
--2-2-----2-2--2-2------|----------------------------|


                                                                            
----------------------------|----------------------------------|-----------|
----------------------------|----------------1-0-1-------------|-----------|
-----------2--------0-2---2-|--------------2-------2-4---2-----|-----------|
------------------------4---|--2-1-----1-4-------------5---4-5-|--2--------|
--2---2--2-----2--2---------|------3-2-------------------------|-----------|
----------------------------|----------------------------------|-----------|


                                                                         
-----------------------------------|------------------------------------|
-----------------------------------|------------------------------------|
--2-0-0-4-0-0-5-0-0-8-0-0-9-0-11-0-|--12-0-0-11-0-0-9-0-0-8-0-0-5-0-4-0-|
-----------------------------------|------------------------------------|
-----------------------------------|------------------------------------|
-----------------------------------|------------------------------------|


                                                                         
-----------------------------------|------------------------------------|
-----------------------------------|------------------------------------|
--2-0-0-4-0-0-5-0-0-8-0-0-9-0-11-0-|--12-0-0-11-0-0-9-0-0-8-0-0-5-0-4-0-|
-----------------------------------|------------------------------------|
-----------------------------------|------------------------------------|
-----------------------------------|------------------------------------|


                                                                              
-------------------------------------|---------------------------------------|
-------------------------------------|---------------------------------------|
--5-0-0-8-0-0-9-0-0-11-0-0-12-0-16-0-|--17-0-0-16-0-0-14-0-0-12-0-0-11-0-9-0-|
-------------------------------------|---------------------------------------|
-------------------------------------|---------------------------------------|
-------------------------------------|---------------------------------------|


                                                                              
-------------------------------------|---------------------------------------|
-------------------------------------|---------------------------------------|
--5-0-0-8-0-0-9-0-0-11-0-0-12-0-16-0-|--17-0-0-16-0-0-14-0-0-12-0-0-11-0-9-0-|
-------------------------------------|---------------------------------------|
-------------------------------------|---------------------------------------|
-------------------------------------|---------------------------------------|


                                                                         
-----------------------------------|------------------------------------|
-----------------------------------|------------------------------------|
--2-0-0-4-0-0-5-0-0-8-0-0-9-0-11-0-|--12-0-0-11-0-0-9-0-0-8-0-0-5-0-4-0-|
-----------------------------------|------------------------------------|
-----------------------------------|------------------------------------|
-----------------------------------|------------------------------------|


                                                                         
-----------------------------------|------------------------------------|
-----------------------------------|------------------------------------|
--2-0-0-4-0-0-5-0-0-8-0-0-9-0-11-0-|--12-0-0-11-0-0-9-0-0-8-0-0-5-0-4-0-|
-----------------------------------|------------------------------------|
-----------------------------------|------------------------------------|
-----------------------------------|------------------------------------|


                                                                             
------------------------------------|---------------------------------------|
------------------------------------|---------------------------------------|
---0-0-8-0-0-9-0-0-11-0-0-12-0-16-0-|--17-0-0-16-0-0-14-0-0-12-0-0-11-0-9-0-|
------------------------------------|---------------------------------------|
------------------------------------|---------------------------------------|
------------------------------------|---------------------------------------|


                                                                              
-------------------------------------|---------------------------------------|
-------------------------------------|---------------------------------------|
--5-0-0-8-0-0-9-0-0-11-0-0-12-0-16-0-|--17-0-0-16-0-0-14-0-0-12-0-0-11-0-9-0-|
-------------------------------------|---------------------------------------|
-------------------------------------|---------------------------------------|
-------------------------------------|---------------------------------------|
            
Submit corrections


        Fatal Tragedy lessons Hard to play? Try these video lessons and learn fast Fatal Tragedy lessons
        
↑ Back to top | Tablatures and chords for acoustic guitar and electric guitar, ukulele, drums are parodies/interpretations of the original songs. You may use it for private study, scholarship, research or language learning purposes only