» » »

Dream Theater - Home Tabs

Artists:  A B C D E F G H I J K L M N O P Q R S T U V W X Y Z # 

Home Tabs

(ver. 1) Click to play this song!
Dream Theater
 Rating:
4/5 (4 votes)

 Home lessons Tabs too difficult? Try these video lessons and learn fast
 
                ---------     ---------    --      --   --    --    --      --
----          --     --    ----    --   --    --    ----    --
----          ---------    -- --   --   --    --    -- --   -- 
---------     ---------    --  --  --   --    --    --  --  -- 
     ----     --     --    --   -- --   --    --    --   -- -- 
     ----     --     --    --    ----   --    --    --    ----
---------     --     --    --      --   --    --    --      -- 
                                        --
                                  --    --
                                    ----

accoustic!
                                                         
E||--------------------------|--------------------------|
B||--------------------------|--------------------------|
G||--------------------------|--------------------------|
D||--0-----0-----0-----0-----|--0-----0-----0-----0-----|
A||--------------------------|--------------------------|
D||-----0-----0-----0-----0--|-----0-----0-----0-----0--|


                                                      
--------------------------|--------------------------|
--------------------------|--------------------------|
--------------------------|--------------------------|
--0-----0-----0-----0-----|--0-----0-----0-----0-----|
--------------------------|--------------------------|
-----0-----0-----0-----0--|-----0-----0-----0-----0--|


                                                      
--------------------------|--------------------------|
--------------------------|--------------------------|
--------------------------|--------------------------|
--0-----0-----0-----0-----|--3-----3-----3-----3-----|
--------------------------|--------------------------|
-----0-----0-----0-----0--|-----0-----0-----0-----0--|


                                                      
--------------------------|--------------------------|
--------------------------|--------------------------|
--------------------------|--------------------------|
--2-----2-----2-----2-----|--5-----5-----5-----5-----|
--------------------------|--------------------------|
-----0-----0-----0-----0--|-----0-----0-----0-----0--|


                                                      
--------------------------|--------------------------|
--------------------------|--------------------------|
--------------------------|--------------------------|
--3-----3-----3-----3-----|--7-----7-----7-----7-----|
--------------------------|--------------------------|
-----0-----0-----0-----0--|-----0-----0-----0-----0--|


                                                      
--------------------------|--------------------------|
--------------------------|--------------------------|
--------------------------|--------------------------|
--5-----5-----5-----5-----|--8-----8-----8-----8-----|
--------------------------|--------------------------|
-----0-----0-----0-----0--|-----0-----0-----0-----0--|


                                                                            
--------------------------|--0-----------------|---------------------------|
--------------------------|--10----------------|---------------------------|
--------------------------|--9-----------------|-------------7------7h8-7--|
--7-----7-----7-----7-----|--0-----------------|--------0------------------|
--------------------------|--0-----------------|-----0---------------------|
-----0-----0-----0-----0--|--0-----------------|--0--------0-----0---------|


                                                     
-------------------------|--------------------------|
-------------------------|--------------------------|
-------------3---2---0---|--------------------------|
--------0----------------|--4-----0------------0----|
-----0-------------------|-----0--------------------|
--0--------0-------------|-----------0-----3h5---1--|


                                                        
----------------------------|--------------------------|
----------------------------|--------------------------|
-------------7-------7h8-7--|-------------5------------|
--------0--------0----------|--------0-----------0-----|
-----0----------------------|-----0-----------0-----0--|
--0--------0-------0--------|--0--------0--------------|


                                                       
-------------------------|----------------------------|
-------------------------|----------------------------|
-------------3---2---0---|----------------------------|
--------0----------------|--4-----0--------------0----|
-----0-------------------|---------------0------------|
--0--------0-------------|-----0-----0-0-----3h5---1--|


                                                          
----------------------------|----------------------------|
----------------------------|----------------------------|
-------------7-------7h8-7--|-------------7-------7h8-7--|
--------0--------0----------|--------0--------0----------|
-----0----------------------|-----0----------------------|
--0--------0-------0--------|--0--------0-------0--------|


                                                          
----------------------------|----------------------------|
----------------------------|----------------------------|
-------------7-------7h8-7--|-------------7--------------|
--------0--------0----------|--------0----------7h8-7----|
-----0----------------------|-----0-------------------0--|
--0--------0-------0--------|--0--------0-----0----------|


                                                          
----------------------------|----------------------------|
----------------------------|----------------------------|
-------------7-------7h8-7--|-------------7-------7h8-7--|
--------0--------0----------|--------0--------0----------|
-----0----------------------|-----0----------------------|
--0--------0-------0--------|--0--------0-------0--------|


                                                              
----------------------------|--------------------------------|
----------------------------|--------------------------------|
-------------7-------7h8-7--|-------------7-----11h12-11-----|
--------0--------0----------|--------0-------------------12--|
-----0----------------------|-----0--------------------------|
--0--------0-------0--------|--0--------0-----0--------------|


                                                          
----------------------------|----------------------------|
----------------------------|----------------------------|
-------------7-------7h8-7--|-------------7-------7h8-7--|
--------0--------0----------|--------0--------0----------|
-----0----------------------|-----0----------------------|
--0--------0-------0--------|--0--------0-------0--------|


                                                          
----------------------------|----------------------------|
----------------------------|----------------------------|
-------------7-------7h8-7--|-------------7--------------|
--------0--------0----------|--------0----------7h8-7----|
-----0----------------------|-----0-------------------0--|
--0--------0-------0--------|--0--------0-----0----------|


                                                          
----------------------------|----------------------------|
----------------------------|----------------------------|
-------------7-------7h8-7--|-------------7-------7h8-7--|
--------0--------0----------|--------0--------0----------|
-----0----------------------|-----0----------------------|
--0--------0-------0--------|--0--------0-------0--------|


                                                              
----------------------------|--------------------------------|
----------------------------|--------------------------------|
-------------7-------7h8-7--|-------------7-----11h12-11-----|
--------0--------0----------|--------0-------------------12--|
-----0----------------------|-----0--------------------------|
--0--------0-------0--------|--0--------0-----0--------------|


DIST. With Wah.Pedall

------------------|---------------------------------------|
------------------|---------------------------------------|
------------------|---------------------------------------|
------------------|---------------------------------------|
------------------|---------------------------------------|
------------------|--0--0--12h13-0-10h12-0-12h13-0-10h12~-|


                                                                                
---------------------------------------|---------------------------------------|
---------------------------------------|---------------------------------------|
---------------------------------------|---------------------------------------|
---------------------------------------|---------------------------------------|
---------------------------------------|---------------------------------------|
--0--0--12h13-0-10h12-0-12h13-0-10h12~-|--0--0--12h13-0-10h12-0-12h13-0-10h12~-|


                                                                           
----------------------------------|---------------------------------------|
----------------------------------|---------------------------------------|
----------------------------------|---------------------------------------|
----------------------------------|---------------------------------------|
----------------------------------|---------------------------------------|
--0--0--7h8-0-5h7-0-7h8-0-3-3h5h3-|--0--0--12h13-0-10h12-0-12h13-0-10h12~-|


                                                                                
---------------------------------------|---------------------------------------|
---------------------------------------|---------------------------------------|
---------------------------------------|---------------------------------------|
---------------------------------------|---------------------------------------|
---------------------------------------|---------------------------------------|
--0--0--12h13-0-10h12-0-12h13-0-10h12~-|--0--0--12h13-0-10h12-0-12h13-0-10h12~-|


                                                                              
---------------------------------------|------------------|------------------|
---------------------------------------|------------------|------------------|
---------------------------------------|------------------|------------------|
---------------------------------------|------------------|------------------|
---------------------------------------|------------------|------------------|
--0--0--12h13-0-16h17-0-16h17-0-17h16~-|------------------|------------------|


                                                                            
------------------|------------------|------------------|------------------|
------------------|------------------|------------------|------------------|
------------------|------------------|------------------|------------------|
------------------|------------------|------------------|------------------|
------------------|------------------|------------------|------------------|
------------------|------------------|------------------|------------------|


                                                                
------------------|------------------|-------------------------|
------------------|------------------|-------------------------|
------------------|------------------|-------------------------|
------------------|------------------|--0--0----0-0--0-0-----0-|
------------------|------------------|--0--0----0-0--0-0-----0-|
------------------|------------------|--0--0----0-0--0-0-----0-|


                                                       
----------------------------|-------------------------|
----------------------------|-------------------------|
----------------------------|-------------------------|
--0--0----0-0--0-7/8/0-5-6--|--0--0----0-0--0-0-----0-|
--0--0----0-0--0-7/8/0-5-6--|--0--0----0-0--0-0-----0-|
--0--0----0-0--0-7/8/0-5-6--|--0--0----0-0--0-0-----0-|


                                                          
-------------------------------|-------------------------|
-------------------------------|-------------------------|
-------------------------------|-------------------------|
--0--0----0-0--0-------1h0-----|--0--0----0-0--0-0-----0-|
--0--0----0-0--0---------------|--0--0----0-0--0-0-----0-|
--0--0----0-0--0-0h1h3-----3h0-|--0--0----0-0--0-0-----0-|


                                                       
----------------------------|-------------------------|
----------------------------|-------------------------|
----------------------------|-------------------------|
--0--0----0-0--0-7/8/0-5-6--|--0--0----0-0--0-0-----0-|
--0--0----0-0--0-7/8/0-5-6--|--0--0----0-0--0-0-----0-|
--0--0----0-0--0-7/8/0-5-6--|--0--0----0-0--0-0-----0-|


                                                          
-------------------------------|-------------------------|
-------------------------------|-------------------------|
-------------------------------|-------------------------|
--0--0----0-0--0-------1h0-----|--0--0----0-0--0-0-----0-|
--0--0----0-0--0---------------|--0--0----0-0--0-0-----0-|
--0--0----0-0--0-0h1h3-----3h0-|--0--0----0-0--0-0-----0-|


                                                       
----------------------------|-------------------------|
----------------------------|-------------------------|
----------------------------|-------------------------|
--0--0----0-0--0-7/8/0-5-6--|--0--0----0-0--0-0-----0-|
--0--0----0-0--0-7/8/0-5-6--|--0--0----0-0--0-0-----0-|
--0--0----0-0--0-7/8/0-5-6--|--0--0----0-0--0-0-----0-|


                                                          
-------------------------------|-------------------------|
-------------------------------|-------------------------|
-------------------------------|-------------------------|
--0--0----0-0--0-------1h0-----|--0--0----0-0--0-0-----0-|
--0--0----0-0--0---------------|--0--0----0-0--0-0-----0-|
--0--0----0-0--0-0h1h3-----3h0-|--0--0----0-0--0-0-----0-|


                                                       
----------------------------|-------------------------|
----------------------------|-------------------------|
----------------------------|-------------------------|
--0--0--------------3h0-----|--0--0----0-0--0-0-----0-|
--0--0----------------------|--0--0----0-0--0-0-----0-|
--0--0--------0h3h5-----6h5-|--0--0----0-0--0-0-----0-|


                                                       
----------------------------|-------------------------|
----------------------------|-------------------------|
----------------------------|-------------------------|
--0--0----------------------|--0--0----0-0--0-0-----0-|
--0--0--------------3h0-----|--0--0----0-0--0-0-----0-|
--0--0--------0h3h5-----1h0-|--0--0----0-0--0-0-----0-|


                                                       
----------------------------|-------------------------|
----------------------------|-------------------------|
----------------------------|-------------------------|
--0--0--------------3h0-----|--0--0----0-0--0-0-----0-|
--0--0----------------------|--0--0----0-0--0-0-----0-|
--0--0--------0h3h5-----6h5-|--0--0----0-0--0-0-----0-|


                                                           
----------------------------|-----------------------------|
----------------------------|-----------------------------|
----------------------------|-----------------------------|
--0--0----------------------|------------7h8-7~-------3h2-|
--0--0--------------3h0-----|--0--0--7h8--------0--0------|
--0--0--------0h3h5-----1h0-|-----------------------------|


                                                              
-------------------------------|-----------------------------|
-------------------------------|-----------------------------|
-------------------------------|-----------------------------|
------------------------5h7-5~-|------------7h8-7~-------3h2-|
--5h4~-0-1h0-4h5-0--5h7--------|--0--0--7h8--------0--0------|
-------------------------------|-----------------------------|


                                                              
-------------------------------|-----------------------------|
-------------------------------|-----------------------------|
-------------------------------|-----------------------------|
------------------------5h7-5~-|------------7h8-7~-------3h2-|
--5h4~-0-1h0-4h5-0--5h7--------|--0--0--7h8--------0--0------|
-------------------------------|-----------------------------|


                                                              
-------------------------------|-----------------------------|
-------------------------------|-----------------------------|
-------------------------------|-----------------------------|
------------------------5h7-5~-|------------7h8-7~-------3h2-|
--5h4~-0-1h0-4h5-0--5h7--------|--0--0--7h8--------0--0------|
-------------------------------|-----------------------------|


                                                                   
-------------------------------|----------------------------------|
-------------------------------|----------------------------------|
-------------------------------|----------------------------------|
------------------------5h7-5~-|----------------------------------|
--5h4~-0-1h0-4h5-0--5h7--------|----------------------------------|
-------------------------------|--5-7-8-5-8-5-7-8-5-8-5-7-8-5-3h0-|


                                                                 
----------------------------------|-----------------------------|
----------------------------------|-----------------------------|
----------------------------------|-----------------------------|
------------------------------7h8-|------------7h8-7~-------3h2-|
------------------------5-7-8-----|--0--0--7h8--------0--0------|
--5-7-8-5-8-5-7-8-5-7-8-----------|-----------------------------|


                                                                   
-------------------------------|----------------------------------|
-------------------------------|----------------------------------|
-------------------------------|----------------------------------|
------------------------5h7-5~-|----------------------------------|
--5h4~-0-1h0-4h5-0--5h7--------|----------------------------------|
-------------------------------|--5-7-8-5-8-5-7-8-5-8-5-7-8-5-3h0-|


                                                              
--------------------------------------|----------------------|
--------------------------------------|----------------------|
--------------------------------------|--5----5----5----5----|
------------------------------5h8h6h5-|--6----6----6----6----|
------------------------5h6h8---------|--6----6----6----6----|
--5-7-8-5-8-5-7-8-5-7-9---------------|----------------------|


                                                                         
----------------------|------------------------|------------------------|
--6----6----6----6----|------------------------|------------------------|
--5----5----5----5----|--5--------5------------|------------------------|
--3----3----3----3----|--5--------5------------|--6--------6------------|
--3----3----3----3----|--3----3-3-3--------3-3-|--3----3-3-3--------3-3-|
----------------------|------------------------|------------------------|


                                                                      
-----------------------|--------------------|------------------------|
--6--------6-----------|--------------------|------------------------|
--5--------5---------x-|--8--------3--------|--5--------5------------|
--3--------3---------x-|--8--------3--------|--5--------5------------|
-------3-3-------------|--6--------1--------|--3----3-3-3--------3-3-|
-----------------------|--------------------|------------------------|


                                                                      
------------------------|-----------------------|--------------------|
------------------------|--6--------6-----------|--------------------|
------------------------|--5--------5---------x-|--8-----------------|
--6--------6------------|--3--------3---------x-|--8--------8--------|
--3----3-3-3--------3-3-|-------3-3-------------|--6--------5--------|
------------------------|-----------------------|--------------------|


                                                               
--------------------|--------------------|--------------------|
--------------------|--------------------|--------------------|
--5------5----------|--------------------|--------------------|
--5------5----------|--6------6----------|--7------7----------|
--3------3----------|--3------3----------|--3------3----------|
--------------------|--------------------|--------------------|


                                                               
--------------------|--------------------|--------------------|
--------------------|--6------6----------|--------------------|
--------------------|--5------5----------|--6------6----------|
--6------6----------|--3------3----------|--6------6----------|
--3------3----------|--3------3----------|--4------4----------|
--------------------|--------------------|--------------------|


                                                        
-------------------------------|-----------------------|
-------------1h2h1-------------|-----------------------|
--3----------------3-1---------|------------5----------|
--3--------------------3-------|------------5----------|
--1------1-1-------------4-3-1-|----------0-3----------|
-------------------------------|--5~-------------17/---|


                                                            
----------------------------|------------------------------|
----------------------------|--------------------------6---|
----------------------------|--------------------5-----5---|
--------------------8-------|--------------------5-----3---|
--5-5-5-5-5h0-5-5-5-5-------|--5-5-5-5-5h0-3-3-3-3---3-----|
----------------------------|------------------------------|


                                                                               
----------------------------|------------------------------|------------------|
----------------------------|--------------------------6---|------------------|
--------------------2-------|--------------------5-----5---|------------------|
--0-0-0-0-----0-0-0-0-------|--0-0-0-0-----------5-----3---|------------------|
----------5h0---------------|----------5h0-3-3-3-3---3-----|------------------|
----------------------------|------------------------------|------------------|


                                                                            
------------------|------------------|------------------|------------------|
------------------|------------------|------------------|------------------|
------------------|------------------|------------------|------------------|
------------------|------------------|------------------|------------------|
------------------|------------------|------------------|------------------|
------------------|------------------|------------------|------------------|


                                                                            
------------------|------------------|------------------|------------------|
------------------|------------------|------------------|------------------|
------------------|------------------|------------------|------------------|
------------------|------------------|------------------|------------------|
------------------|------------------|------------------|------------------|
------------------|------------------|------------------|------------------|


                                                                            
------------------|------------------|------------------|------------------|
------------------|------------------|------------------|------------------|
------------------|------------------|------------------|------------------|
------------------|------------------|------------------|------------------|
------------------|------------------|------------------|------------------|
------------------|------------------|------------------|------------------|


                                                         
------------------|------------------|------------------|
------------------|------------------|------------------|
------------------|------------------|------------------|
------------------|------------------|------------------|
------------------|------------------|------------------|
------------------|------------------|------------------|


                                                                                
---------------------------------------|---------------------------------------|
---------------------------------------|---------------------------------------|
---------------------------------------|---------------------------------------|
---------------------------------------|---------------------------------------|
---------------------------------------|---------------------------------------|
--0--0--12h13-0-10h12-0-12h13-0-10h12~-|--0--0--12h13-0-10h12-0-12h13-0-10h12~-|


                                                                           
---------------------------------------|----------------------------------|
---------------------------------------|----------------------------------|
---------------------------------------|----------------------------------|
---------------------------------------|----------------------------------|
---------------------------------------|----------------------------------|
--0--0--12h13-0-10h12-0-12h13-0-10h12~-|--0--0--7h8-0-5h7-0-7h8-0-3-3h5h3-|


                                                                                
---------------------------------------|---------------------------------------|
---------------------------------------|---------------------------------------|
---------------------------------------|---------------------------------------|
---------------------------------------|---------------------------------------|
---------------------------------------|---------------------------------------|
--0--0--12h13-0-10h12-0-12h13-0-10h12~-|--0--0--12h13-0-10h12-0-12h13-0-10h12~-|


                                                                                
---------------------------------------|---------------------------------------|
---------------------------------------|---------------------------------------|
---------------------------------------|---------------------------------------|
---------------------------------------|---------------------------------------|
---------------------------------------|---------------------------------------|
--0--0--12h13-0-10h12-0-12h13-0-10h12~-|--0--0--12h13-0-16h17-0-16h17-0-17h16~-|


                                                              
-----------------------------|-------------------------------|
-----------------------------|-------------------------------|
-----------------------------|-------------------------------|
------------7h8-7~-------3h2-|------------------------5h7-5~-|
--0--0--7h8--------0--0------|--5h4~-0-1h0-4h5-0--5h7--------|
-----------------------------|-------------------------------|


                                                              
-----------------------------|-------------------------------|
-----------------------------|-------------------------------|
-----------------------------|-------------------------------|
------------7h8-7~-------3h2-|------------------------5h7-5~-|
--0--0--7h8--------0--0------|--5h4~-0-1h0-4h5-0--5h7--------|
-----------------------------|-------------------------------|


                                                              
-----------------------------|-------------------------------|
-----------------------------|-------------------------------|
-----------------------------|-------------------------------|
------------7h8-7~-------3h2-|------------------------5h7-5~-|
--0--0--7h8--------0--0------|--5h4~-0-1h0-4h5-0--5h7--------|
-----------------------------|-------------------------------|


                                                              
-----------------------------|-------------------------------|
-----------------------------|-------------------------------|
-----------------------------|-------------------------------|
------------7h8-7~-------3h2-|------------------------5h7-5~-|
--0--0--7h8--------0--0------|--5h4~-0-1h0-4h5-0--5h7--------|
-----------------------------|-------------------------------|


                                                                      
----------------------------------|----------------------------------|
----------------------------------|----------------------------------|
----------------------------------|----------------------------------|
----------------------------------|------------------------------7h8-|
----------------------------------|------------------------5-7-8-----|
--5-7-8-5-8-5-7-8-5-8-5-7-8-5-3h0-|--5-7-8-5-8-5-7-8-5-7-8-----------|


                                                              
-----------------------------|-------------------------------|
-----------------------------|-------------------------------|
-----------------------------|-------------------------------|
------------7h8-7~-------3h2-|------------------------5h7-5~-|
--0--0--7h8--------0--0------|--5h4~-0-1h0-4h5-0--5h7--------|
-----------------------------|-------------------------------|


                                                                          
----------------------------------|--------------------------------------|
----------------------------------|--------------------------------------|
----------------------------------|--------------------------------------|
----------------------------------|------------------------------5h8h6h5-|
----------------------------------|------------------------5h6h8---------|
--5-7-8-5-8-5-7-8-5-8-5-7-8-5-3h0-|--5-7-8-5-8-5-7-8-5-7-9---------------|


                                                                       
----------------------|----------------------|------------------------|
----------------------|--6----6----6----6----|------------------------|
--5----5----5----5----|--5----5----5----5----|--5--------5------------|
--6----6----6----6----|--3----3----3----3----|--5--------5------------|
--6----6----6----6----|--3----3----3----3----|--3----3-3-3--------3-3-|
----------------------|----------------------|------------------------|


                                                                      
------------------------|-----------------------|--------------------|
------------------------|--6--------6-----------|--------------------|
------------------------|--5--------5---------x-|--8--------3--------|
--6--------6------------|--3--------3---------x-|--8--------3--------|
--3----3-3-3--------3-3-|-------3-3-------------|--6--------1--------|
------------------------|-----------------------|--------------------|


                                                                          
------------------------|------------------------|-----------------------|
------------------------|------------------------|--6--------6-----------|
--5--------5------------|------------------------|--5--------5---------x-|
--5--------5------------|--6--------6------------|--3--------3---------x-|
--3----3-3-3--------3-3-|--3----3-3-3--------3-3-|-------3-3-------------|
------------------------|------------------------|-----------------------|


                                                               
--------------------|--------------------|--------------------|
--------------------|--------------------|--------------------|
--8-----------------|--5------5----------|--------------------|
--8--------8--------|--5------5----------|--6------6----------|
--6--------5--------|--3------3----------|--3------3----------|
--------------------|--------------------|--------------------|


                                                               
--------------------|--------------------|--------------------|
--------------------|--------------------|--6------6----------|
--------------------|--------------------|--5------5----------|
--7------7----------|--6------6----------|--3------3----------|
--3------3----------|--3------3----------|--3------3----------|
--------------------|--------------------|--------------------|


                                                                          
--------------------|-------------------------------|--------------------|
--------------------|-------------1h2h1-------------|--------------------|
--6------6----------|--3----------------3-1---------|--------------------|
--6------6----------|--3--------------------3-------|--------------------|
--4------4----------|--1------1-1-------------4-3-1-|--------------------|
--------------------|-------------------------------|--5~-------2~-------|


                                                                             
-------------------|------------------|------------------|------------------|
-------------------|------------------|------------------|------------------|
-------------------|------------------|------------------|------------------|
--0----------------|------------------|------------------|------------------|
--0----------------|------------------|------------------|------------------|
--0----------------|------------------|------------------|------------------|

------------------|------------------|------------------|------------------|
------------------|------------------|------------------|------------------|
------------------|------------------|------------------|------------------|
------------------|------------------|------------------|------------------|
------------------|------------------|------------------|------------------|
------------------|------------------|------------------|------------------|


                                                        
---------------------------|---------------------------|
---------------------------|---------------------------|
---------------------------|---------------------------|
---------------------------|---------------------------|
--------------------3h5~-5-|--------------------3h5~-3-|
--0---0--0/12~---0---------|--0---0--0/12~---0---------|


                                                        
---------------------------|---------------------------|
---------------------------|---------------------------|
---------------------------|---------------------------|
---------------------------|---------------------------|
--------------------3h5~-5-|--------------------3h5~-3-|
--0---0--0/12~---0---------|--0---0--0/12~---0---------|


                                                        
---------------------------|---------------------------|
---------------------------|---------------------------|
---------------------------|---------------------------|
---------------------------|---------------------------|
--------------------3h5~-5-|--------------------3h5~-3-|
--0---0--0/12~---0---------|--0---0--0/12~---0---------|


                                                        
---------------------------|---------------------------|
---------------------------|---------------------------|
---------------------------|---------------------------|
---------------------------|---------------------------|
--------------------3h5~-5-|--------------------3h5~-3-|
--0---0--0/12~---0---------|--0---0--0/12~---0---------|


                                                                   
---------------------------------|--------------------------------|
---------------------------------|--------------------------------|
---------------------------------|-------------5-4----------------|
-----5---3-5---6---3-5-----------|-----5---3--------6-5-----------|
-------------------------6-5-3-2-|------------------------3-5-2---|
--5----5-----5---5-----5---------|--5----5---5----------5-------6-|


                                                                   
---------------------------------|--------------------------------|
---------------------------------|--------------------------------|
---------------------------------|-------------5-4----------------|
-----5---3-5---6---3-5-----------|-----5---3--------6-5-----------|
-------------------------6-5-3-2-|------------------------3-5-2---|
--5----5-----5---5-----5---------|--5----5---5----------5-------6-|


                                                                   
---------------------------------|--------------------------------|
---------------------------------|--------------------------------|
---------------------------------|-------------5-4----------------|
-----5---3-5---6---3-5-----------|-----5---3--------6-5-----------|
-------------------------6-5-3-2-|------------------------3-5-2---|
--5----5-----5---5-----5---------|--5----5---5----------5-------6-|


                                                                   
---------------------------------|--------------------------------|
---------------------------------|--------------------------------|
---------------------------------|-------------5-4----------------|
-----5---3-5---6---3-5-----------|-----5---3--------6-5-----------|
-------------------------6-5-3-2-|------------------------3-5-2---|
--5----5-----5---5-----5---------|--5----5---5----------5-------6-|


                                                                                
---------------------------------------|---------------------------------------|
---------------------------------------|---------------------------------------|
---------------------------------------|---------------------------------------|
---------------------------------------|---------------------------------------|
---------------------------------------|---------------------------------------|
--0--0--12h13-0-10h12-0-12h13-0-10h12~-|--0--0--12h13-0-10h12-0-12h13-0-10h12~-|


                                                                           
---------------------------------------|----------------------------------|
---------------------------------------|----------------------------------|
---------------------------------------|----------------------------------|
---------------------------------------|----------------------------------|
---------------------------------------|----------------------------------|
--0--0--12h13-0-10h12-0-12h13-0-10h12~-|--0--0--7h8-0-5h7-0-7h8-0-3-3h5h3-|


                                                                                
---------------------------------------|---------------------------------------|
---------------------------------------|---------------------------------------|
---------------------------------------|---------------------------------------|
---------------------------------------|---------------------------------------|
---------------------------------------|---------------------------------------|
--0--0--12h13-0-10h12-0-12h13-0-10h12~-|--0--0--12h13-0-10h12-0-12h13-0-10h12~-|


                                                                                
---------------------------------------|---------------------------------------|
---------------------------------------|---------------------------------------|
---------------------------------------|---------------------------------------|
---------------------------------------|---------------------------------------|
---------------------------------------|---------------------------------------|
--0--0--12h13-0-10h12-0-12h13-0-10h12~-|--0--0--12h13-0-16h17-0-16h17-0-17h16~-|


                                                                   
---------------------------------|--------------------------------|
---------------------------------|--------------------------------|
---------------------------------|-------------5-4----------------|
-----5---3-5---6---3-5-----------|-----5---3--------6-5-----------|
-------------------------6-5-3-2-|------------------------3-5-2---|
--5----5-----5---5-----5---------|--5----5---5----------5-------6-|


                                                                   
---------------------------------|--------------------------------|
---------------------------------|--------------------------------|
---------------------------------|-------------5-4----------------|
-----5---3-5---6---3-5-----------|-----5---3--------6-5-----------|
-------------------------6-5-3-2-|------------------------3-5-2---|
--5----5-----5---5-----5---------|--5----5---5----------5-------6-|


                                                                   
---------------------------------|--------------------------------|
---------------------------------|--------------------------------|
---------------------------------|-------------5-4----------------|
-----5---3-5---6---3-5-----------|-----5---3--------6-5-----------|
-------------------------6-5-3-2-|------------------------3-5-2---|
--5----5-----5---5-----5---------|--5----5---5----------5-------6-|


                                                                   
---------------------------------|--------------------------------|
---------------------------------|--------------------------------|
---------------------------------|-------------5-4----------------|
-----5---3-5---6---3-5-----------|-----5---3--------6-5-----------|
-------------------------6-5-3-2-|------------------------3-5-2---|
--5----5-----5---5-----5---------|--5----5---5----------5-------6-|


                                                                
-------------------------------|-------------------------------|
-------------------------------|-------------------------------|
-------------------------------|-------------------------------|
--------7h8---5h7---7h8---5h7~-|--------7h8---5h7---7h8---5h7~-|
--0--0------0-----0-----0------|--0--0------0-----0-----0------|
-------------------------------|-------------------------------|


                                                                   
----------------------------------|-------------------------------|
----------------------------------|-------------------------------|
----------------------------------|-------------------------------|
----------------------------------|--------7h8---5h7---7h8---5h7~-|
--0--0--7h8-0-5h7-0-7h8-0-3-3h5h3-|--0--0------0-----0-----0------|
----------------------------------|-------------------------------|


                                                                
-------------------------------|-------------------------------|
-------------------------------|-------------------------------|
-------------------------------|-------------------------------|
--------7h8---5h7---7h8---5h7~-|--------7h8---5h7---7h8---5h7~-|
--0--0------0-----0-----0------|--0--0------0-----0-----0------|
-------------------------------|-------------------------------|


                                                                
-------------------------------|-------------------------------|
-------------------------------|-------------------------------|
-------------------------------|--------------6h7---6h7---7h6~-|
--------7h8---5h7---7h8---5h7--|--------7h8--------------------|
--0--0------0-----0-----0------|--0--0------0-----0-----0------|
-------------------------------|-------------------------------|


                                                                      
----------------------------------|----------------------------------|
----------------------------------|----------------------------------|
----------------------------------|----------------------------------|
----------------------------------|------------------------------7h8-|
----------------------------------|------------------------5-7-8-----|
--5-7-8-5-8-5-7-8-5-8-5-7-8-5-3h0-|--5-7-8-5-8-5-7-8-5-7-8-----------|


                                                              
-----------------------------|-------------------------------|
-----------------------------|-------------------------------|
-----------------------------|-------------------------------|
------------7h8-7~-------3h2-|------------------------5h7-5~-|
--0--0--7h8--------0--0------|--5h4~-0-1h0-4h5-0--5h7--------|
-----------------------------|-------------------------------|


                                                                      
----------------------------------|----------------------------------|
----------------------------------|----------------------------------|
----------------------------------|----------------------------------|
----------------------------------|------------------------------7h8-|
----------------------------------|------------------------5-7-8-----|
--5-7-8-5-8-5-7-8-5-8-5-7-8-5-3h0-|--5-7-8-5-8-5-7-8-5-7-8-----------|


                                                                       
----------------------|----------------------|------------------------|
----------------------|--6----6----6----6----|------------------------|
--5----5----5----5----|--5----5----5----5----|--5--------5------------|
--6----6----6----6----|--3----3----3----3----|--5--------5------------|
--6----6----6----6----|--3----3----3----3----|--3----3-3-3--------3-3-|
----------------------|----------------------|------------------------|


                                                                      
------------------------|-----------------------|--------------------|
------------------------|--6--------6-----------|--------------------|
------------------------|--5--------5---------x-|--8--------3--------|
--6--------6------------|--3--------3---------x-|--8--------3--------|
--3----3-3-3--------3-3-|-------3-3-------------|--6--------1--------|
------------------------|-----------------------|--------------------|


                                                                          
------------------------|------------------------|-----------------------|
------------------------|------------------------|--6--------6-----------|
--5--------5------------|------------------------|--5--------5---------x-|
--5--------5------------|--6--------6------------|--3--------3---------x-|
--3----3-3-3--------3-3-|--3----3-3-3--------3-3-|-------3-3-------------|
------------------------|------------------------|-----------------------|


                                                               
--------------------|--------------------|--------------------|
--------------------|--------------------|--------------------|
--8-----------------|--5------5----------|--------------------|
--8--------8--------|--5------5----------|--6------6----------|
--6--------5--------|--3------3----------|--3------3----------|
--------------------|--------------------|--------------------|


                                                               
--------------------|--------------------|--------------------|
--------------------|--------------------|--6------6----------|
--------------------|--------------------|--5------5----------|
--7------7----------|--6------6----------|--3------3----------|
--3------3----------|--3------3----------|--3------3----------|
--------------------|--------------------|--------------------|


                     
--------------------|
--------------------|
--6------6----------|
--6------6----------|
--4------4----------|
--------------------|


                                                               
--------------------------------------------------------------|
--------------18-16-------18-16-18-16-------------------------|
--3----3------------18-17-------------18-17-15----------------|
--3----3---------------------------------------18-13-15-13-11-|
--1----1--1-1-------------------------------------------------|
--------------------------------------------------------------|


                                                             
--------------------|---------------------------------------|
--------------------|---------------------------------------|
--------------------|---------------------------------------|
--------------------|---------------------------------------|
--------------------|---------------------------------------|
--5~-------2~-------|--0--0--12h13-0-10h12-0-12h13-0-10h12~-|


                                                                                
---------------------------------------|---------------------------------------|
---------------------------------------|---------------------------------------|
---------------------------------------|---------------------------------------|
---------------------------------------|---------------------------------------|
---------------------------------------|---------------------------------------|
--0--0--12h13-0-10h12-0-12h13-0-10h12~-|--0--0--12h13-0-10h12-0-12h13-0-10h12~-|


                                                                           
----------------------------------|---------------------------------------|
----------------------------------|---------------------------------------|
----------------------------------|---------------------------------------|
----------------------------------|---------------------------------------|
----------------------------------|---------------------------------------|
--0--0--7h8-0-5h7-0-7h8-0-3-3h5h3-|--0--0--12h13-0-10h12-0-12h13-0-10h12~-|


                                                                              
---------------------------------------|-------------------------------------|
---------------------------------------|-------------------------------------|
---------------------------------------|-------------------------------------|
---------------------------------------|-------------------------------------|
---------------------------------------|-------------------------------------|
--0--0--12h13-0-10h12-0-12h13-0-10h12~-|--0--0--10h11-0-8h10-0-10h11-0-8h10~-|


                                                                              
---------------------------------------|------------------|------------------|
---------------------------------------|------------------|------------------|
---------------------------------------|------------------|------------------|
---------------------------------------|------------------|------------------|
---------------------------------------|------------------|------------------|
--0--0--10h11-0-16h17-0-16h17-0-17h16~-|------------------|------------------|


                                                                            
------------------|------------------|------------------|------------------|
------------------|------------------|------------------|------------------|
------------------|------------------|------------------|------------------|
------------------|------------------|------------------|------------------|
------------------|------------------|------------------|------------------|
------------------|------------------|------------------|------------------|
RATE ME PLEASE!!!!!!!!!!!!!!!!!!!
            
Submit corrections


        Home lessons Hard to play? Try these video lessons and learn fast Home lessons
        
↑ Back to top | Tablatures and chords for acoustic guitar and electric guitar, ukulele, drums are parodies/interpretations of the original songs. You may use it for private study, scholarship, research or language learning purposes only