» » »

Dream Theater - Burning My Soul Tabs

Artists:  A B C D E F G H I J K L M N O P Q R S T U V W X Y Z # 

Burning My Soul Tabs

(ver. 2) Click to play this song!
Dream Theater
 Rating:
4/5 (4 votes)

 Burning My Soul lessons Tabs too difficult? Try these video lessons and learn fast
 
                ---------     ---------    --      --   --    --    --      --
----          --     --    ----    --   --    --    ----    --
----          ---------    -- --   --   --    --    -- --   -- 
---------     ---------    --  --  --   --    --    --  --  -- 
     ----     --     --    --   -- --   --    --    --   -- -- 
     ----     --     --    --    ----   --    --    --    ----
---------     --     --    --      --   --    --    --      -- 
                                        --
                                  --    --
                                    ----



                                                                
E||-------------------|-------------------||-------------------|
B||-------------------|-------------------||-------------------|
G||*------------------|------------------*||*------------------|
D||*------------------|------------------*||*------------------|
A||-------------------|-------------------||-------------------|
E||-------------------|-------------------||-------------------|


                                                                          
-------------------||-------------------------|-------------------------||
-------------------||-------------------------|-------------------------||
------------------*||*------------------------|------------------------*||
------------------*||*--2-------8--8-------5--|--5-------7--7-------3--*||
-------------------||---2-------8--8-------5--|--5-------7--7-------3---||
-------------------||---0----0----------0-----|-------0----------0------||


                                                  
------------------------|------------------------|
------------------------|------------------------|
------------------------|------------------------|
--2-------8--8-------5--|--5-------7--7-------3--|
--2-------8--8-------5--|--5-------7--7-------3--|
--0----0----------0-----|-------0----------0-----|


                                                              
------------------------------|------------------------------|
------------------------------|------------------------------|
------------------------------|------------------------------|
--2-2-2--2-2--2-2-2-2--2-2--2-|--2-2-2--2-2--2-2-2-2--2-2--2-|
--2-2-2--2-2--2-2-2-2--2-2--2-|--2-2-2--2-2--2-2-2-2--2-2--2-|
--0-0-0--0-0--0-0-0-0--0-0--0-|--0-0-0--0-0--0-0-0-0--0-0--0-|


                                                              
------------------------------|------------------------------|
------------------------------|------------------------------|
------------------------------|------------------------------|
--2-2-2--2-2--2-2-2-2--2-2--2-|--2-2-2--2-2--2-2-2-2--2-2--2-|
--2-2-2--2-2--2-2-2-2--2-2--2-|--2-2-2--2-2--2-2-2-2--2-2--2-|
--0-0-0--0-0--0-0-0-0--0-0--0-|--0-0-0--0-0--0-0-0-0--0-0--0-|


                                                               
-------------------------------|------------------------------|
-------------------------------|------------------------------|
-------------------------------|------------------------------|
--2-2-2-2-2-2--2-2-2-2--2-2--2-|--2-2-2--2-2--2-2-2-2--2-2--2-|
--2-2-2-2-2-2--2-2-2-2--2-2--2-|--2-2-2--2-2--2-2-2-2--2-2--2-|
--0-0-0-0-0-0--0-0-0-0--0-0--0-|--0-0-0--0-0--0-0-0-0--0-0--0-|


                                                                
------------------------------|--------------------------------|
------------------------------|--------------------------------|
------------------------------|--3-3-3-3-3-3-3-----------------|
--2-2-2--2-2--2-2-2-2--2-2--2-|--3-3-3-3-3-3-3--4-4-4-4-4-4-4/-|
--2-2-2--2-2--2-2-2-2--2-2--2-|--1-1-1-1-1-1-1--4-4-4-4-4-4-4/-|
--0-0-0--0-0--0-0-0-0--0-0--0-|--1-1-1-1-1-1-1--2-2-2-2-2-2-2/-|


                                                              
------------------------------|------------------------------|
------------------------------|------------------------------|
------------------------------|------------------------------|
--2-2-2--2-2--2-2-2-2--2-2--2-|--2-2-2--2-2--2-2-2-2--2-2--2-|
--2-2-2--2-2--2-2-2-2--2-2--2-|--2-2-2--2-2--2-2-2-2--2-2--2-|
--0-0-0--0-0--0-0-0-0--0-0--0-|--0-0-0--0-0--0-0-0-0--0-0--0-|


                                                              
------------------------------|------------------------------|
------------------------------|------------------------------|
------------------------------|------------------------------|
--2-2-2--2-2--2-2-2-2--2-2--2-|--2-2-2--2-2--2-2-2-2--2-2--2-|
--2-2-2--2-2--2-2-2-2--2-2--2-|--2-2-2--2-2--2-2-2-2--2-2--2-|
--0-0-0--0-0--0-0-0-0--0-0--0-|--0-0-0--0-0--0-0-0-0--0-0--0-|


                                                               
-------------------------------|------------------------------|
-------------------------------|------------------------------|
-------------------------------|--7-7-7--7-7--7-7-7-7--7-7--7-|
-----------------2-2-2---------|--7-7-7--7-7--7-7-7-7--7-7--7-|
-----------------2-2-2---------|--5-5-5--5-5--5-5-5-5--5-5--5-|
--0-0-0-0-0-0-0--0-0-0--0-0--0-|--5-5-5--5-5--5-5-5-5--5-5--5-|


                                                           
------------------------------|---------------------------|
------------------------------|---------------------------|
--5-5-5--5-5--5-5-5-5--5-5--5-|--3-3-3--3-3--3------------|
--5-5-5--5-5--5-5-5-5--5-5--5-|--3-3-3--3-3--3-4-4-4------|
--3-3-3--3-3--3-3-3-3--3-3--3-|--1-1-1--1-1--1-4-4-4------|
--3-3-3--3-3--3-3-3-3--3-3--3-|--1-1-1--1-1--1-2-2-2------|


                                                                        
|---0-0-0-0-0-0-0-0-0-0-0-0-0-0-0-0-|--0-0-0-0-0-0-0-0-0-0-0-0-0-0-0-0-|
|---5-5-5-5-5-5-5-5-5-5-5-5-5-5-5-5-|--8-8-8-8-8-8-8-8-8-8-8-8-8-8-8-8-|
|*----------------------------------|----------------------------------|
|*----------------------------------|----------------------------------|
|-----------------------------------|----------------------------------|
|-----------------------------------|----------------------------------|


                                                   
--0--0--0--0--0--0--0--0--0--0--0--0--0--0--0--0--|
--10-10-10-10-10-10-10-10-10-10-10-10-10-10-10-10-|
--------------------------------------------------|
--------------------------------------------------|
--------------------------------------------------|
--------------------------------------------------|


                                                                              
--0--0--0--0--0--0--0--0------------------|--0-0-0-0-0-0-0-0-0-0-0-0-0-0-0-0-|
--13-13-13-13-13-13-13-13-----------------|--5-5-5-5-5-5-5-5-5-5-5-5-5-5-5-5-|
----------------------------7-------------|----------------------------------|
--------------------------9---7-9-5-7-----|----------------------------------|
--------------------------------------5-7-|----------------------------------|
------------------------------------------|----------------------------------|


                                   
--0-0-0-0-0-0-0-0-0-0-0-0-0-0-0-0-|
--8-8-8-8-8-8-8-8-8-8-8-8-8-8-8-8-|
----------------------------------|
----------------------------------|
----------------------------------|
----------------------------------|


                                                   
--0--0--0--0--0--0--0--0--0--0--0--0--0--0--0--0--|
--10-10-10-10-10-10-10-10-10-10-10-10-10-10-10-10-|
--------------------------------------------------|
--------------------------------------------------|
--------------------------------------------------|
--------------------------------------------------|


                                                                    
--0--0--0--0--0--0--0--0------------------|------------------------|
--12-12-12-12-12-12-12-12-----------------|------------------------|
----------------------------7-------------|------------------------|
--------------------------9---7-9-5-7-----|--2------------------5--|
--------------------------------------5-7-|--2-------8--8-------5--|
------------------------------------------|--0----0--6--6----0-----|


                                                                           
------------------------|------------------------|------------------------|
------------------------|------------------------|------------------------|
------------------------|------------------------|------------------------|
--5-------7--7-------3--|--2-------8--8-------5--|--5-------7--7-------3--|
--5-------7--7-------3--|--2-------6--6-------5--|--5-------7--7-------3--|
-------0----------0-----|--0----0----------0-----|-------0----------0-----|


                                                              
------------------------------|------------------------------|
------------------------------|------------------------------|
------------------------------|------------------------------|
------------------------------|------------------------------|
------------------------------|------------------------------|
--0-0-0--0-0--0-0-0-0--0-0--0-|--0-0-0--0-0--0-0-0-0--0-0--0-|


                                                                
------------------------------|-------------------------------||
------------------------------|-------------------------------||
------------------------------|------------------------------*||
------------------------------|------------------------------*||
------------------------------|-------------------------------||
--0-0-0--0-0--0-0-0-0--0-0--0-|--0-0-0--0-0--0-0-0-0--0-0--0--||


                                                                           
------------------------|------------------------|------------------------|
------------------------|------------------------|------------------------|
------------------------|------------------------|------------------------|
--2------------------5--|--5-------7--7-------3--|--2-------8--8-------5--|
--2-------8--8-------5--|--5-------7--7-------3--|--2-------8--8-------5--|
--0----0--6--6----0-----|-------0----------0-----|--0----0----------0-----|


                                                        
------------------------|------------------------------|
------------------------|------------------------------|
------------------------|------------------------------|
--5-------7--7-------3--|------------------------------|
--5-------7--7-------3--|------------------------------|
-------0----------0-----|--0-0-0-0--0--0-0-0-0--0-0-0--|


                                                                           
------------------------|------------------------|------------------------|
------------------------|------------------------|------------------------|
------------------------|------------------------|------------------------|
--2------------------5--|--5-------7--7-------3--|--2------------------5--|
--2-------8--8-------5--|--5-------7--7-------3--|--2-------8--8-------5--|
--0----0--6--6----0-----|-------0----------0-----|--0----0--6--6----0-----|


                                                                           
------------------------|------------------------|------------------------|
------------------------|------------------------|------------------------|
------------------------|------------------------|------------------------|
--5-------7--7-------3--|--2------------------5--|--5-------7--7-------3--|
--5-------7--7-------3--|--2-------8--8-------5--|--5-------7--7-------3--|
-------0----------0-----|--0----0--6--6----0-----|-------0----------0-----|


                                                                         
------------------------|-----------------------|-----------------------|
------------------------|-----------------------|-----------------------|
------------------------|-----------------------|-----------------------|
--2-------8--2-------5--|----2-----7~-----2--3--|-----------------------|
--2-------8--2-------5--|----2-----7~-----2--3--|-----------------------|
--0----0-----0----0-----|-------0---------0--1--|--0-0-0-0--0--0-0-0-0--|


                                                   
--------------------------|-----------------------|
--------------------------|-----------------------|
--------------------------|-----------------------|
--------------------------|-----------------------|
--------------------------|--0-0-0-0--0--0-0-0-0--|
--3-3-3-3--3--3-3-3-3--3--|-----------------------|


                                                       
------------------------------|-----------------------|
------------------------------|-----------------------|
------------------------------|-----------------------|
------------------------------|-----------------------|
--3-3-3-3--3--3-3h2-2--0------|-----------------------|
--------------------------3h0-|--0-0-0-0--0--0-0-0-0--|


                                                   
--------------------------|-----------------------|
--------------------------|-----------------------|
--------------------------|-----------------------|
--------------------------|-----------------------|
--------------------------|--0-0-0-0--0--0-0-0-0--|
--3-3-3-3--3--3-3-3-3--3--|-----------------------|


                                                           
----------------------------------|-----------------------|
----------------------------------|-----------------------|
----------------------------------|-----------------------|
----------------2-0---------------|-----------------------|
--3-3-3-3--3--3-----2-1-0h1h0-----|-----------------------|
------------------------------3-0-|--0-0-0-0--0--0-0-0-0--|


                                                   
--------------------------|-----------------------|
--------------------------|-----------------------|
--------------------------|-----------------------|
--------------------------|-----------------------|
--------------------------|-----------------------|
--0-0-0-0--0--0-0-0-0--0--|--0-0-0-0--0--0-0-0-0--|


                                                       
------------------------------|-----------------------|
------------------------------|-----------------------|
------------------------------|-----------------------|
------------------------------|--2-2-2-2--2--2-2-2-2--|
------------------------------|--2-2-2-2--2--2-2-2-2--|
--0-0-0-0--0--0-0-0-0--0-0-0--|--0-0-0-0--0--0-0-0-0--|


                                                       
------------------------------|-----------------------|
------------------------------|-----------------------|
------------------------------|-----------------------|
--2-2-2-2--2--2-2-2-2--2-2-2--|--2-2-2-2--2--2-2-2-2--|
--2-2-2-2--2--2-2-2-2--2-2-2--|--2-2-2-2--2--2-2-2-2--|
--0-0-0-0--0--0-0-0-0--0-0-0--|--0-0-0-0--0--0-0-0-0--|


                                                       
------------------------------|-----------------------|
------------------------------|-----------------------|
------------------------------|-----------------------|
--2-2-2-2--2--2-2-2-2--2-2-2--|--2-2-2-2--2--2-2-2-2--|
--2-2-2-2--2--2-2-2-2--2-2-2--|--2-2-2-2--2--2-2-2-2--|
--0-0-0-0--0--0-0-0-0--0-0-0--|--0-0-0-0--0--0-0-0-0--|


                                                       
------------------------------|-----------------------|
------------------------------|-----------------------|
------------------------------|-----------------------|
--2-2-2-2--2--2-2-2-2--2-2-2--|--2-2-2-2--2--2-2-2-2--|
--2-2-2-2--2--2-2-2-2--2-2-2--|--2-2-2-2--2--2-2-2-2--|
--0-0-0-0--0--0-0-0-0--0-0-0--|--0-0-0-0--0--0-0-0-0--|


                                                       
------------------------------|-----------------------|
------------------------------|-----------------------|
--3-3-3-3--3--3---------------|-----------------------|
--3-3-3-3--3--3-4-4-4--4-4-4--|--2-2-2-2--2--2-2-2-2--|
--1-1-1-1--1--1-4-4-4--4-4-4--|--2-2-2-2--2--2-2-2----|
----------------2-2-2--2-2-2--|--0-0-0-0--0--0-0-0----|


                                                        
-------------------------------|-----------------------|
-------------------------------|-----------------------|
-------------------------------|-----------------------|
--2-2-2-2--2--2-----0------0h2-|--2-2-2-2--2--2-2-2----|
--2-2-2-2--2--2----------------|--2-2-2-2--2--2-2-2-4--|
--0-0-0-0--0--0-0-0----0-0-----|--0-0-0-0--0--0-0-0----|


                                                        
-------------------------------|-----------------------|
-------------------------------|-----------------------|
-------------------------------|-----------------------|
--2-2-2-2--2--2-----0------0h2-|--2-2-2-2--2--2-2-2-2--|
--2-2-2-2--2--2----------------|--2-2-2-2--2--2-2-2----|
--0-0-0-0--0--0-0-0----0-0-----|--0-0-0-0--0--0-0-0----|


                                                         
-------------------------------|------------------------|
-------------------------------|------------------------|
-------------------------------|------------------------|
--2-2-2-2--2--2-----0------0h2-|------------------------|
--2-2-2-2--2--2----------------|--3-3-3-3--3--3-3-3-3-3-|
--0-0-0-0--0--0-0-0----0-0-----|------------------------|


                                                                
----------------------------|--0-0-0-0-0-0-0-0-0-0-0-0-0-0-0-0-|
----------------------------|--5-5-5-5-5-5-5-5-5-5-5-5-5-5-5-5-|
-----------3----------------|----------------------------------|
-----------3---4------------|----------------------------------|
--1-1-1-1--1---4----4-3-2-1-|----------------------------------|
---------------2------------|----------------------------------|


                                   
--0-0-0-0-0-0-0-0-0-0-0-0-0-0-0-0-|
--8-8-8-8-8-8-8-8-8-8-8-8-8-8-8-8-|
----------------------------------|
----------------------------------|
----------------------------------|
----------------------------------|


                                                   
--0--0--0--0--0--0--0--0--0--0--0--0--0--0--0--0--|
--10-10-10-10-10-10-10-10-10-10-10-10-10-10-10-10-|
--------------------------------------------------|
--------------------------------------------------|
--------------------------------------------------|
--------------------------------------------------|


                                                                              
--0--0--0--0--0--0--0--0------------------|--0-0-0-0-0-0-0-0-0-0-0-0-0-0-0-0-|
--13-13-13-13-13-13-13-13-----------------|--5-5-5-5-5-5-5-5-5-5-5-5-5-5-5-5-|
----------------------------7-------------|----------------------------------|
--------------------------9---7-9-5-7-----|----------------------------------|
--------------------------------------5-7-|----------------------------------|
------------------------------------------|----------------------------------|


                                   
--0-0-0-0-0-0-0-0-0-0-0-0-0-0-0-0-|
--8-8-8-8-8-8-8-8-8-8-8-8-8-8-8-8-|
----------------------------------|
----------------------------------|
----------------------------------|
----------------------------------|


                                                   
--0--0--0--0--0--0--0--0--0--0--0--0--0--0--0--0--|
--10-10-10-10-10-10-10-10-10-10-10-10-10-10-10-10-|
--------------------------------------------------|
--------------------------------------------------|
--------------------------------------------------|
--------------------------------------------------|


                                            
--0--0--0--0--0--0--0--0------------------||
--12-12-12-12-12-12-12-12-----------------||
----------------------------7-------------||
--------------------------9---7-9-5-7-----||
--------------------------------------5-7-||
------------------------------------------||

ThAt'S iT!!! RaTe Me!!!!!!
            
Submit corrections


        Burning My Soul lessons Hard to play? Try these video lessons and learn fast Burning My Soul lessons
        
↑ Back to top | Tablatures and chords for acoustic guitar and electric guitar, ukulele, drums are parodies/interpretations of the original songs. You may use it for private study, scholarship, research or language learning purposes only