» » »

Dream Theater - Burning My Soul Tabs

Artists:  A B C D E F G H I J K L M N O P Q R S T U V W X Y Z # 

Burning My Soul Tabs

(ver. 1) Click to play this song!
Dream Theater
 Rating:
4/5 (4 votes)

 Burning My Soul lessons Tabs too difficult? Try these video lessons and learn fast
 
                 
                        N.C.
     Gong
E||----------9--------|
B||-------------------|
G||4------------------|
D||4------------------|
A||----------7--------|
E||-------------------|
 ||  Bass
B||-------------------|-------------------------|-------------------------|
G||4------------------|-------------------------|-------------------------|
D||4------------------|-------------------------|-------------------------|
A||-------------------|----------1--------------|----------0--------------|
D||-------------------|-2--0--2-----2--0--2--5--|-2--0--2-----2--0--2--3--|
 
 
 
   Bass
B|-------------------------|-------------------------|
G|-------------------------|-------------------------|
D|-------------------------|-------------------------|
A|----------1--------------|----------0--------------|
D|-2--0--2-----2--0--2--5--|-2--0--2-----2--0--2--3--|
 
 
 
   E5       Bb5         G5            A5
   Gtr.1(Clean)  
E|----------6-----------3--|----------5--------------|
B|-5-----------------------|----------------5--6-----|
G|----------3-----4-----0--|----------2--------------|
D|-2-----------------------|----------------2--3-----|
A|----------------2--------|-------------------------|
E|-------------------------|-------------------------|
 | Bass
B|-------------------------|-------------------------|
G|-------------------------|-------------------------|
D|-------------------------|-------------------------|
A|----------1--------------|----------0--------------|
D|-2--0--2-----2--0--2--5--|-2--0--2-----2--0--2--3--|
 
 
 
   E5       Bb5         G5            A5
   Gtr.1  
E|----------6-----------3--|----------5--------------|
B|-5-----------------------|----------------5--6-----|
G|----------3-----4-----0--|----------2--------------|
D|-2-----------------------|----------------2--3-----|
A|----------------2--------|-------------------------|
E|-------------------------|-------------------------|
 | Bass
B|-------------------------|-------------------------|
G|-------------------------|-------------------------|
D|-------------------------|-------------------------|
A|----------1--------------|----------0--------------|
D|-2--0--2-----2--0--2--5--|-2--0--2-----2--0--2--3--|
 
 
 
   E5       Bb5         G5            A5
   Gtr.1  
E|----------6-----------3--|----------5--------------|
B|-5-----------------------|----------------5--6-----|
G|----------3-----4-----0--|----------2--------------|
D|-2-----------------------|----------------2--3-----|
A|----------------2--------|-------------------------|
E|-------------------------|-------------------------|
 | Bass
B|-------------------------|-------------------------|
G|-------------------------|-------------------------|
D|-------------------------|-------------------------|
A|----------1--------------|----------0--------------|
D|-2--0--2-----2--0--2--5--|-2--0--2-----2--0--2--3--|
 
 
 
   E5       Bb5         G5            A5
   Gtr.1  
E|----------6-----------3--|----------5--------------|
B|-5-----------------------|----------------5--6-----|
G|----------3-----4-----0--|----------2--------------|
D|-2-----------------------|----------------2--3-----|
A|----------------2--------|-------------------------|
E|-------------------------|-------------------------|
 | Bass
B|-------------------------|-------------------------|
G|-------------------------|-------------------------|
D|-------------------------|-------------------------|
A|----------1--------------|----------0--------------|
D|-2--0--2-----2--0--2--5--|-2--0--2-----2--0--2--3--|
 
 
 
   E5       Bb5      E5 G5   E5    A5 E5       F5
   Gtr.1  
E|----------6-----------3--|----------5--------------|
B|-5-----------------------|----------------5--6-----|
G|----------3-----4-----0--|----------2--------------|
D|-2-----------------------|----------------2--3-----|
A|----------------2--------|-------------------------|
E|-------------------------|-------------------------|
 | Gtr.2 w/heavy dist.
E|-------------------------|-------------------------|
B|-------------------------|-------------------------|
G|-------------------------|-------------------------|
D|-2-------/8--8-------/5--|-5-------/7--7--------3--|
A|-2-------/8--8-------/5--|-5-------/7--7--------3--|
E|-0-----0-----------0-----|-------0-----------0-----| 
 | Bass
B|-------------------------|-------------------------|
G|-------------------------|-------------------------|
D|-------------------------|-------------------------|
A|----------1--------------|----------0--------------|
D|-2--0--2-----2--0--2--5--|-2--0--2-----2--0--2--3--|
 
 
 
   E5       Bb5      E5 G5   E5    A5 E5       F5
   Gtr.1  
E|----------6-----------3--|----------5--------------|
B|-5-----------------------|----------------5--6-----|
G|----------3-----4-----0--|----------2--------------|
D|-2-----------------------|----------------2--3-----|
A|----------------2--------|-------------------------|
E|-------------------------|-------------------------|
 | Gtr.2 
E|-------------------------|-------------------------|
B|-------------------------|-------------------------|
G|-------------------------|-------------------------|
D|-2-------/8--8-------/5--|-5-------/7--7--------3--|
A|-2-------/8--8-------/5--|-5-------/7--7--------3--|
E|-0-----0-----------0-----|-------0-----------0-----| 
 | Bass
B|-------------------------|-------------------------|
G|-------------------------|-------------------------|
D|-------------------------|-------------------------|
A|----------1--------------|----------0--------------|
D|-2--0--2-----2--0--2--5--|-2--0--2-----2--0--2--3--|
 
 
 
   E5       Bb5      E5 G5   E5    A5 E5       F5
   Gtr.1  
E|----------6-----------3--|----------5--------------|
B|-5-----------------------|----------------5--6-----|
G|----------3-----4-----0--|----------2--------------|
D|-2-----------------------|----------------2--3-----|
A|----------------2--------|-------------------------|
E|-------------------------|-------------------------|
 | Gtr.2
E|-------------------------|-------------------------|
B|-------------------------|-------------------------|
G|-------------------------|-------------------------|
D|-2-------/8--8-------/5--|-5-------/7--7--------3--|
A|-2-------/8--8-------/5--|-5-------/7--7--------3--|
E|-0-----0-----------0-----|-------0-----------0-----| 
 | Bass
B|-------------------------|-------------------------|
G|-------------------------|-------------------------|
D|-------------------------|-------------------------|
A|----------1--------------|----------0--------------|
D|-2--0--2-----2--0--2--5--|-2--0--2-----2--0--2--3--|
 
 
 
   E5       Bb5      E5 G5   E5    A5 E5       F5
   Gtr.1  
E|----------6-----------3--|----------5--------------|
B|-5-----------------------|----------------5--6-----|
G|----------3-----4-----0--|----------2--------------|
D|-2-----------------------|----------------2--3-----|
A|----------------2--------|-------------------------|
E|-------------------------|-------------------------|
 | Gtr.2 
E|-------------------------|-------------------------|
B|-------------------------|-------------------------|
G|-------------------------|-------------------------|
D|-2-------/8--8-------/5--|-5-------/7--7--------3--|
A|-2-------/8--8-------/5--|-5-------/7--7--------3--|
E|-0-----0-----------0-----|-------0-----------0-----| 
 | Bass
B|-------------------------|-------------------------|
G|-------------------------|-------------------------|
D|-------------------------|-------------------------|
A|----------1--------------|----------0--------------|
D|-2--0--2-----2--0--2--5--|-2--0--2-----2--0--2--3--|
 
 
 
   E5       Bb5      E5 G5   E5    A5 E5       F5
   Gtr.1  
E|----------6-----------3--|----------5--------------|
B|-5-----------------------|----------------5--6-----|
G|----------3-----4-----0--|----------2--------------|
D|-2-----------------------|----------------2--3-----|
A|----------------2--------|-------------------------|
E|-------------------------|-------------------------|
 | Gtr.2 
E|-------------------------|-------------------------|
B|-------------------------|-------------------------|
G|-------------------------|-------------------------|
D|-2-------/8--8-------/5--|-5-------/7--7--------3--|
A|-2-------/8--8-------/5--|-5-------/7--7--------3--|
E|-0-----0-----------0-----|-------0-----------0-----| 
 | Bass
B|-------------------------|-------------------------|
G|-------------------------|-------------------------|
D|-------------------------|-------------------------|
A|----------1--------------|----------0--------------|
D|-2--0--2-----2--0--2--5--|-2--0--2-----2--0--2--3--|
 
 
 
   E5       Bb5      E5 G5   E5    A5 E5       F5
   Gtr.1  
E|----------6-----------3--|----------5--------------|
B|-5-----------------------|----------------5--6-----|
G|----------3-----4-----0--|----------2--------------|
D|-2-----------------------|----------------2--3-----|
A|----------------2--------|-------------------------|
E|-------------------------|-------------------------|
 | Gtr.2 
E|-------------------------|-------------------------|
B|-------------------------|-------------------------|
G|-------------------------|-------------------------|
D|-2-------/8--8-------/5--|-5-------/7--7--------3--|
A|-2-------/8--8-------/5--|-5-------/7--7--------3--|
E|-0-----0-----------0-----|-------0-----------0-----| 
 | Bass
B|-------------------------|-------------------------|
G|-------------------------|-------------------------|
D|-------------------------|-------------------------|
A|----------1--------------|----------0--------------|
D|-2--0--2-----2--0--2--5--|-2--0--2-----2--0--2--3--|
                                                    A
 
 
   E5
   Gtr.2 
   P.M._ _ _ _ _ _ _ _ _ _ _ _ _ _ _ _ _ _ _ _ _ _ _ _ _ _ _ 
E|-----------------------------|-----------------------------|
B|-----------------------------|-----------------------------|
G|-----------------------------|-----------------------------|
D|-2-2-2--2-2--2-2-2-2--2-2--2-|-2-2-2--2-2--2-2-2-2--2-2--2-|
A|-2-2-2--2-2--2-2-2-2--2-2--2-|-2-2-2--2-2--2-2-2-2--2-2--2-|
E|-0-0-0--0-0--0-0-0-0--0-0--0-|-0-0-0--0-0--0-0-0-0--0-0--0-| 
   thorn in my side,___       a chip on my shoul-der.       A
 
 
 
   Gtr.2 
   _ _ _ _ _ _ _ _ _ _ _ _ _ _ _ _ _ _ _ _ _ _ _ _ _ _ _ _ _
E|-----------------------------|-----------------------------|
B|-----------------------------|-----------------------------|
G|-----------------------------|-----------------------------|
D|-2-2-2--2-2--2-2-2-2--2-2--2-|-2-2-2--2-2--2-2-2-2--2-2--2-|
A|-2-2-2--2-2--2-2-2-2--2-2--2-|-2-2-2--2-2--2-2-2-2--2-2--2-|
E|-0-0-0--0-0--0-0-0-0--0-0--0-|-0-0-0--0-0--0-0-0-0--0-0--0-| 
   lump in my throat___      the size of a boul-der.       The
 
 
 
   
  Gtr.2           P.M._ _ _ _ _ _ _ _ _ _ _ _ _ _ _ _ _ _ _ _
E|------------------------------|-----------------------------|
B|------------------------------|-----------------------------|
G|------------------------------|-----------------------------|
D|-2-2-2-2-2-2--2-2-2-2--2-2--2-|-2-2-2--2-2--2-2-2-2--2-2--2-|
A|-2-2-2-2-2-2--2-2-2-2--2-2--2-|-2-2-2--2-2--2-2-2-2--2-2--2-|
E|-0-0-0-0-0-0--0-0-0-0--0-0--0-|-0-0-0--0-0--0-0-0-0--0-0--0-| 
   chill up my spine__      can't get an-y cold-er.        And
 
 
                                 Bb5            F#5
   Gtr.2 
   _ _ _ _ _ _ _ _ _ _ _ _ _ _ 
E|-----------------------------|-------------------------------|
B|-----------------------------|-------------------------------|
G|-----------------------------|-3-3-3-3-3-3-3-----------------|
D|-2-2-2--2-2--2-2-2-2--2-2--2-|-3-3-3-3-3-3-3--4-4-4-4-4-4-4--|
A|-2-2-2--2-2--2-2-2-2--2-2--2-|-1-1-1-1-1-1-1--4-4-4-4-4-4-4--|
E|-0-0-0--0-0--0-0-0-0--0-0--0-|-1-1-1-1-1-1-1--2-2-2-2-2-2-2--| 
   you won-der why__ I___ can't  smile.______                 A
 
 
   E5     E      E5     E        E5     E      E5     E
   Gtr.2 
   P.M._         P.M._           P.M._         P.M._
E|-----------------------------|-----------------------------|
B|-----------------------------|-----------------------------|
G|-----------------------------|-----------------------------|
D|-2-2-2---------2-2-2---------|-2-2-2---------2-2-2---------|
A|-2-2-2---------2-2-2---------|-2-2-2---------2-2-2---------|
E|-0-0-0--0-0--0-0-0-0--0-0--0-|-0-0-0--0-0--0-0-0-0--0-0--0-| 
   knot in my gut,           an ape on__ my back.       In the
 
 
   E5     E      E5     E        E5     E      E5     E
   Gtr.2 
   P.M._         P.M._           P.M._         P.M._
E|-----------------------------|-----------------------------|
B|-----------------------------|-----------------------------|
G|-----------------------------|-----------------------------|
D|-2-2-2---------2-2-2---------|-2-2-2---------2-2-2---------|
A|-2-2-2---------2-2-2---------|-2-2-2---------2-2-2---------|
E|-0-0-0--0-0--0-0-0-0--0-0--0-|-0-0-0--0-0--0-0-0-0--0-0--0-| 
   heat of the mo-ment,     I'm knocked off the track.
 
 
   E              E5     E        D5
   Gtr.2 
E|------------------------------|-----------------------------|
B|------------------------------|-----------------------------|
G|------------------------------|-7-7-7--7-7--7-7-7-7--7-7--7-|
D|----------------2-2-2---------|-7-7-7--7-7--7-7-7-7--7-7--7-|
A|----------------2-2-2---------|-5-5-5--5-5--5-5-5-5--5-5--5-|
E|-0-0-0-0-0-0--0-0-0-0--0-0--0-|-5-5-5--5-5--5-5-5-5--5-5--5-| 
   You drop the ball,__       I   pick up the slack.__  And you
 
 
   C5                            Bb5           F#5    N.C.
   Gtr.2 
E|-----------------------------|-----------------------------|
B|-----------------------------|-----------------------------|
G|-5-5-5--5-5--5-5-5-5--5-5--5-|-3-3-3--3-3--3---------------|
D|-5-5-5--5-5--5-5-5-5--5-5--5-|-3-3-3--3-3--3-4-4-4---------|
A|-3-3-3--3-3--3-3-3-3--3-3--3-|-1-1-1--1-1--1-4-4-4---------|
E|-3-3-3--3-3--3-3-3-3--3-3--3-|-1-1-1--1-1--1-2-2-2---------| 
 | Synth.
E|-----------------------------|-----------------------------|
B|-----------------------------|----------------------17-----|
G|-----------------------------|------------------15-----15--|
D|-----------------------------|--------------14-------------|
A|-----------------------------|-----------------------------|
E|-----------------------------|-----------------------------|
  ask me why my hair's___ gray.
 
 
   E5
   Gtr.3 w/slight dist.
E|-0--0--0--0--0--0--0--0--0--0--0--0--0--0--0--0--|
B|-5--5--5--5--5--5--5--5--5--5--5--5--5--5--5--5--|
G|-------------------------------------------------|
D|-------------------------------------------------|
A|-------------------------------------------------|
E|-------------------------------------------------| 
 | Gtr.4 
E|------12--0-10-12--0-10-12--0-10-12--0-10-12--0--|
B|-------------------------------------------------|
G|-------------------------------------------------|
D|-------------------------------------------------|
A|-------------------------------------------------|
E|-------------------------------------------------|
 | Synth.
E|-------------------------------------------------|
B|-------------------------------------------------|
G|-------------------------------------------------|
D|14-----------------------------------------------|
A|-------------------------------------------------|
E|-------------------------------------------------|
   Twist     -       ing,___________
 
 
   G5/D
   Gtr.3 
E|-0--0--0--0--0--0--0--0--0--0--0--0--0--0--0--0--|
B|-8--8--8--8--8--8--8--8--8--8--8--8--8--8--8--8--|
G|-------------------------------------------------|
D|-------------------------------------------------|
A|-------------------------------------------------|
E|-------------------------------------------------| 
 | Gtr.4 
E|10-12--0-10-12--0-10-12--0-10-12--0-10-12--0-10--|
B|-------------------------------------------------|
G|-------------------------------------------------|
D|-------------------------------------------------|
A|-------------------------------------------------|
E|-------------------------------------------------|
   turn      -       ing,__________
 
 
   A5/C#
   Gtr.3
E|-0--0--0--0--0--0--0--0--0--0--0--0--0--0--0--0--|
B|10-10-10-10-10-10-10-10-10-10-10-10-10-10-10-10--|
G|-------------------------------------------------|
D|-------------------------------------------------|
A|-------------------------------------------------|
E|-------------------------------------------------| 
 | Gtr.4 
E|12--0-10-12--0-10-12--0-10-12--0-10-12--0-10-12--|
B|-------------------------------------------------|
G|-------------------------------------------------|
D|-------------------------------------------------|
A|-------------------------------------------------|
E|-------------------------------------------------|
         los  -   ing      all      sense_ of
 
 
   C5                      N.C.
   Gtr.3
E|-0--0--0--0--0--0--0--0--------------------------|
B|13-13-13-13-13-13-13-13--------------------------|
G|-------------------------------------------------|
D|-------------------------------------------------|
A|-------------------------------------------------|
E|-------------------------------------------------| 
 | Gtr.4 
E|-0-10-12--0-10-12--0-10--------------------------|
B|-------------------------------------------------|
G|-------------------------------------------------|
D|-------------------------------------------------|
A|-------------------------------------------------|
E|-------------------------------------------------|
 | Gtr.5                   P.M._ _ _ _ _ _ _ _ _ _
E|-------------------------------------------------|
B|-------------------------------------------------|
G|----------------------------7--------------------|
D|-------------------------9-----7--9--5--7--------|
A|-------------------------------------------5--7--|
E|-------------------------------------------------|
   yearn      -      ing.___
 
 
   E5
   Gtr.3 
E|-0--0--0--0--0--0--0--0--0--0--0--0--0--0--0--0--|
B|-5--5--5--5--5--5--5--5--5--5--5--5--5--5--5--5--|
G|-------------------------------------------------|
D|-------------------------------------------------|
A|-------------------------------------------------|
E|-------------------------------------------------| 
 | Gtr.4 
E|------12--0-10-12--0-10-12--0-10-12--0-10-12--0--|
B|-------------------------------------------------|
G|-------------------------------------------------|
D|-------------------------------------------------|
A|-------------------------------------------------|
E|-------------------------------------------------|
   Liv       -       ing___________  and
 
 
   G5
   Gtr.3 
E|-0--0--0--0--0--0--0--0--0--0--0--0--0--0--0--0--|
B|-8--8--8--8--8--8--8--8--8--8--8--8--8--8--8--8--|
G|-------------------------------------------------|
D|-------------------------------------------------|
A|-------------------------------------------------|
E|-------------------------------------------------| 
 | Gtr.4 
E|10-12--0-10-12--0-10-12--0-10-12--0-10-12--0-10--|
B|-------------------------------------------------|
G|-------------------------------------------------|
D|-------------------------------------------------|
A|-------------------------------------------------|
E|-------------------------------------------------|
   learn      -      ing,___________         the
 
 
   A5
   Gtr.3
E|-0--0--0--0--0--0--0--0--0--0--0--0--0--0--0--0--|
B|10-10-10-10-10-10-10-10-10-10-10-10-10-10-10-10--|
G|-------------------------------------------------|
D|-------------------------------------------------|
A|-------------------------------------------------|
E|-------------------------------------------------| 
 | Gtr.4 
E|12--0-10-12--0-10-12--0-10-12--0-10-12--0-10-12--|
B|-------------------------------------------------|
G|-------------------------------------------------|
D|-------------------------------------------------|
A|-------------------------------------------------|
E|-------------------------------------------------|
   pres-sure         keeps___    on
 
 
   B5                      N.C.
   Gtr.3
E|-0--0--0--0--0--0--0--0--------------------------|
B|12-12-12-12-12-12-12-12--------------------------|
G|-------------------------------------------------|
D|-------------------------------------------------|
A|-------------------------------------------------|
E|-------------------------------------------------| 
 | Gtr.4 
E|-0-10-12--0-10-12--0-10--------------------------|
B|-------------------------------------------------|
G|-------------------------------------------------|
D|-------------------------------------------------|
A|-------------------------------------------------|
E|-------------------------------------------------|
 | Gtr.5                   P.M._ _ _ _ _ _ _ _ _ _
E|-------------------------------------------------|
B|-------------------------------------------------|
G|----------------------------7--------------------|
D|-------------------------9-----7--9--5--7--------|
A|-------------------------------------------5--7--|
E|-------------------------------------------------|
   burn       -      ing____           my
 
 
   E5       Bb5      E5 G5   E5    A5 E5       F5
   Gtr.2 
E|-------------------------|-------------------------|
B|-------------------------|-------------------------|
G|-------------------------|-------------------------|
D|-2-------/8--8-------/5--|-5-------/7--7--------3--|
A|-2-------/8--8-------/5--|-5-------/7--7--------3--|
E|-0-----0-----------0-----|-------0-----------0-----| 
 | Gtr.6 w/talk box               
E|-------------------------|-------------------------|
B|-------------------------|-------------------------|
G|-------------------------|-------------------------|
D|-------------------------|-------------------------|
A|-------------------------|-------------------------|
E|-0--0--0--0--------------|-------------------------|
   soul._                    Burn-ing__    my 
  (Burn-ing my soul.__)
 
 
   E5       Bb5      E5 G5   E5    A5 E5       F5
   Gtr.2 
E|-------------------------|-------------------------|
B|-------------------------|-------------------------|
G|-------------------------|-------------------------|
D|-2-------/8--8-------/5--|-5-------/7--7--------3--|
A|-2-------/8--8-------/5--|-5-------/7--7--------3--|
E|-0-----0-----------0-----|-------0-----------0-----| 
 | Gtr.6                
E|-------------------------|-------------------------|
B|-------------------------|-------------------------|
G|-------------------------|-------------------------|
D|-------------------------|-------------------------|
A|-------------------------|-------------------------|
E|-0--0--0--0--------------|-------------------------|
   soul._                    Burn-ing__    my 
  (Burn-ing my soul.__)
 
 
   E5       
   Gtr.2 
E|-----------------------------|-----------------------------|
B|-----------------------------|-----------------------------|
G|-----------------------------|-----------------------------|
D|-----------------------------|-----------------------------|
A|-----------------------------|-----------------------------|
E|-0-0-0--0-0--0-0-0-0--0-0--0-|-0-0-0--0-0--0-0-0-0--0-0--0-| 
 | Gtr.6                
E|-----------------------------|-----------------------------|
B|-----------------------------|-----------------------------|
G|-----------------------------|-----------------------------|
D|-----------------------------|-----------------------------|
A|-----------------------------|-----------------------------|
E|-0---0--0--0-----------------|-----------------------------|
   soul._                     
  (Burn-ing my soul.__)
 
 
 
   Gtr.2 
E|-----------------------------|-----------------------------|
B|-----------------------------|-----------------------------|
G|-----------------------------|-----------------------------|
D|-----------------------------|-----------------------------|
A|-----------------------------|-----------------------------|
E|-0-0-0--0-0--0-0-0-0--0-0--0-|-0-0-0--0-0--0-0-0-0--0-0--0-|
 
 
 
   E5     E      E5     E        E5     E      E5     E
   Gtr.2 
   P.M._         P.M._           P.M._         P.M._
E|-----------------------------|-----------------------------|
B|-----------------------------|-----------------------------|
G|-----------------------------|-----------------------------|
D|-2-2-2---------2-2-2---------|-2-2-2---------2-2-2---------|
A|-2-2-2---------2-2-2---------|-2-2-2---------2-2-2---------|
E|-0-0-0--0-0--0-0-0-0--0-0--0-|-0-0-0--0-0--0-0-0-0--0-0--0-| 
   I say it's green and then you tell me it's red.  Keep your
 
 
   E5     E      E5     E        E5     E      E5     E
   Gtr.2 
   P.M._         P.M._           P.M._         P.M._
E|-----------------------------|-----------------------------|
B|-----------------------------|-----------------------------|
G|-----------------------------|-----------------------------|
D|-2-2-2---------2-2-2---------|-2-2-2---------2-2-2---------|
A|-2-2-2---------2-2-2---------|-2-2-2---------2-2-2---------|
E|-0-0-0--0-0--0-0-0-0--0-0--0-|-0-0-0--0-0--0-0-0-0--0-0--0-| 
   thoughts and i-deas__ locked in-side of your head. 
 
 
   E              E5     E        D5
   Gtr.2 
E|------------------------------|-----------------------------|
B|------------------------------|-----------------------------|
G|------------------------------|-7-7-7--7-7--7-7-7-7--7-7--7-|
D|----------------2-2-2---------|-7-7-7--7-7--7-7-7-7--7-7--7-|
A|----------------2-2-2---------|-5-5-5--5-5--5-5-5-5--5-5--5-|
E|-0-0-0-0-0-0--0-0-0-0--0-0--0-|-5-5-5--5-5--5-5-5-5--5-5--5-| 
   We've got some-one__who can think for you in-stead.__ And he
 
 
   C5                            Bb5           F#5    N.C.
   Gtr.2 
E|-----------------------------|-----------------------------|
B|-----------------------------|-----------------------------|
G|-5-5-5--5-5--5-5-5-5--5-5--5-|-3-3-3--3-3--3---------------|
D|-5-5-5--5-5--5-5-5-5--5-5--5-|-3-3-3--3-3--3-4-4-4---------|
A|-3-3-3--3-3--3-3-3-3--3-3--3-|-1-1-1--1-1--1-4-4-4---------|
E|-3-3-3--3-3--3-3-3-3--3-3--3-|-1-1-1--1-1--1-2-2-2---------| 
 | Synth.
E|-----------------------------|-----------------------------|
B|-----------------------------|----------------------17-----|
G|-----------------------------|------------------15-----15--|
D|-----------------------------|--------------14-------------|
A|-----------------------------|-----------------------------|
E|-----------------------------|-----------------------------|
   sounds just like the last__one.
 
 
   E5
   Gtr.3 
E|-0--0--0--0--0--0--0--0--0--0--0--0--0--0--0--0--|
B|-5--5--5--5--5--5--5--5--5--5--5--5--5--5--5--5--|
G|-------------------------------------------------|
D|-------------------------------------------------|
A|-------------------------------------------------|
E|-------------------------------------------------| 
 | Gtr.4 
E|------12--0-10-12--0-10-12--0-10-12--0-10-12--0--|
B|-------------------------------------------------|
G|-------------------------------------------------|
D|-------------------------------------------------|
A|-------------------------------------------------|
E|-------------------------------------------------|
 | Synth.
E|-------------------------------------------------|
B|-------------------------------------------------|
G|-------------------------------------------------|
D|14-----------------------------------------------|
A|-------------------------------------------------|
E|-------------------------------------------------|
   Twist     -       ing,___________
 
 
   G5/D
   Gtr.3 
E|-0--0--0--0--0--0--0--0--0--0--0--0--0--0--0--0--|
B|-8--8--8--8--8--8--8--8--8--8--8--8--8--8--8--8--|
G|-------------------------------------------------|
D|-------------------------------------------------|
A|-------------------------------------------------|
E|-------------------------------------------------| 
 | Gtr.4 
E|10-12--0-10-12--0-10-12--0-10-12--0-10-12--0-10--|
B|-------------------------------------------------|
G|-------------------------------------------------|
D|-------------------------------------------------|
A|-------------------------------------------------|
E|-------------------------------------------------|
   turn      -       ing,__________
 
 
   A5/C#
   Gtr.3
E|-0--0--0--0--0--0--0--0--0--0--0--0--0--0--0--0--|
B|10-10-10-10-10-10-10-10-10-10-10-10-10-10-10-10--|
G|-------------------------------------------------|
D|-------------------------------------------------|
A|-------------------------------------------------|
E|-------------------------------------------------| 
 | Gtr.4 
E|12--0-10-12--0-10-12--0-10-12--0-10-12--0-10-12--|
B|-------------------------------------------------|
G|-------------------------------------------------|
D|-------------------------------------------------|
A|-------------------------------------------------|
E|-------------------------------------------------|
         los  -   ing      all      sense_ of
 
 
   C5                      N.C.
   Gtr.3
E|-0--0--0--0--0--0--0--0--------------------------|
B|13-13-13-13-13-13-13-13--------------------------|
G|-------------------------------------------------|
D|-------------------------------------------------|
A|-------------------------------------------------|
E|-------------------------------------------------| 
 | Gtr.4 
E|-0-10-12--0-10-12--0-10--------------------------|
B|-------------------------------------------------|
G|-------------------------------------------------|
D|-------------------------------------------------|
A|-------------------------------------------------|
E|-------------------------------------------------|
 | Gtr.5                   P.M._ _ _ _ _ _ _ _ _ _
E|-------------------------------------------------|
B|-------------------------------------------------|
G|----------------------------7--------------------|
D|-------------------------9-----7--9--5--7--------|
A|-------------------------------------------5--7--|
E|-------------------------------------------------|
   yearn      -      ing.___
 
 
   E5
   Gtr.3 
E|-0--0--0--0--0--0--0--0--0--0--0--0--0--0--0--0--|
B|-5--5--5--5--5--5--5--5--5--5--5--5--5--5--5--5--|
G|-------------------------------------------------|
D|-------------------------------------------------|
A|-------------------------------------------------|
E|-------------------------------------------------| 
 | Gtr.4 
E|------12--0-10-12--0-10-12--0-10-12--0-10-12--0--|
B|-------------------------------------------------|
G|-------------------------------------------------|
D|-------------------------------------------------|
A|-------------------------------------------------|
E|-------------------------------------------------|
   Liv       -       ing___________  and
 
 
   G5
   Gtr.3 
E|-0--0--0--0--0--0--0--0--0--0--0--0--0--0--0--0--|
B|-8--8--8--8--8--8--8--8--8--8--8--8--8--8--8--8--|
G|-------------------------------------------------|
D|-------------------------------------------------|
A|-------------------------------------------------|
E|-------------------------------------------------| 
 | Gtr.4 
E|10-12--0-10-12--0-10-12--0-10-12--0-10-12--0-10--|
B|-------------------------------------------------|
G|-------------------------------------------------|
D|-------------------------------------------------|
A|-------------------------------------------------|
E|-------------------------------------------------|
   learn      -      ing,___________         the
 
 
   A5
   Gtr.3
E|-0--0--0--0--0--0--0--0--0--0--0--0--0--0--0--0--|
B|10-10-10-10-10-10-10-10-10-10-10-10-10-10-10-10--|
G|-------------------------------------------------|
D|-------------------------------------------------|
A|-------------------------------------------------|
E|-------------------------------------------------| 
 | Gtr.4 
E|12--0-10-12--0-10-12--0-10-12--0-10-12--0-10-12--|
B|-------------------------------------------------|
G|-------------------------------------------------|
D|-------------------------------------------------|
A|-------------------------------------------------|
E|-------------------------------------------------|
   pres-sure         keeps___    on
 
 
   B5                      N.C.
   Gtr.3
E|-0--0--0--0--0--0--0--0--------------------------|
B|12-12-12-12-12-12-12-12--------------------------|
G|-------------------------------------------------|
D|-------------------------------------------------|
A|-------------------------------------------------|
E|-------------------------------------------------| 
 | Gtr.4 
E|-0-10-12--0-10-12--0-10--------------------------|
B|-------------------------------------------------|
G|-------------------------------------------------|
D|-------------------------------------------------|
A|-------------------------------------------------|
E|-------------------------------------------------|
 | Gtr.5                   P.M._ _ _ _ _ _ _ _ _ _
E|-------------------------------------------------|
B|-------------------------------------------------|
G|----------------------------7--------------------|
D|-------------------------9-----7--9--5--7--------|
A|-------------------------------------------5--7--|
E|-------------------------------------------------|
   burn       -      ing____           my
 
 
   E5       Bb5      E5 G5   E5    A5 E5       F5
   Gtr.2 
E|-------------------------|-------------------------|
B|-------------------------|-------------------------|
G|-------------------------|-------------------------|
D|-2-------/8--8-------/5--|-5-------/7--7--------3--|
A|-2-------/8--8-------/5--|-5-------/7--7--------3--|
E|-0-----0-----------0-----|-------0-----------0-----| 
 | Gtr.6             
E|-------------------------|-------------------------|
B|-------------------------|-------------------------|
G|-------------------------|-------------------------|
D|-------------------------|-------------------------|
A|-------------------------|-------------------------|
E|-0--0--0--0--------------|-------------------------|
   soul._                    Burn-ing__    my 
  (Burn-ing my soul.__)
 
 
   E5       Bb5      E5 G5   E5    A5 E5       F5
   Gtr.2 
E|-------------------------|-------------------------|
B|-------------------------|-------------------------|
G|-------------------------|-------------------------|
D|-2-------/8--8-------/5--|-5-------/7--7--------3--|
A|-2-------/8--8-------/5--|-5-------/7--7--------3--|
E|-0-----0-----------0-----|-------0-----------0-----| 
 | Gtr.6              
E|-------------------------|-------------------------|
B|-------------------------|-------------------------|
G|-------------------------|-------------------------|
D|-------------------------|-------------------------|
A|-------------------------|-------------------------|
E|-0--0--0--0--------------|-------------------------|
   soul._                    Burn-ing__    my 
  (Burn-ing my soul.__)
 
 
   E5       Bb5      E5 G5   E5    A5 E5       F5
   Gtr.2 
E|-------------------------|-------------------------|
B|-------------------------|-------------------------|
G|-------------------------|-------------------------|
D|-2-------/8--8-------/5--|-5-------/7--7--------3--|
A|-2-------/8--8-------/5--|-5-------/7--7--------3--|
E|-0-----0-----------0-----|-------0-----------0-----| 
 | Gtr.6             
E|-------------------------|-------------------------|
B|-------------------------|-------------------------|
G|-------------------------|-------------------------|
D|-------------------------|-------------------------|
A|-------------------------|-------------------------|
E|-0--0--0--0--------------|-------------------------|
   soul._                    Burn-ing__    my 
  (Burn-ing my soul.__)
 
 
   E5       Bb5      E5 G5   E5    A5 E5       F5
   Gtr.2 
E|-------------------------|-------------------------|
B|-------------------------|-------------------------|
G|-------------------------|-------------------------|
D|-2-------/8--8-------/5--|-5-------/7--7--------3--|
A|-2-------/8--8-------/5--|-5-------/7--7--------3--|
E|-0-----0-----------0-----|-------0-----------0-----| 
 | Gtr.6              
E|-------------------------|-------------------------|
B|-------------------------|-------------------------|
G|-------------------------|-------------------------|
D|-------------------------|-------------------------|
A|-------------------------|-------------------------|
E|-0--0--0--0--------------|-------------------------|
   soul._                    Burn-ing__    my 
  (Burn-ing my soul.__)
 
 
   E
   Gtr.2              
E|-----------------------------|-------------------------|
B|-----------------------------|-------------------------|
G|-----------------------------|-------------------------|
D|-----------------------------|-------------------------|
A|-----------------------------|-------------------------|
E|-0-0-0-0--0--0-0-0-0--0-0-0--|-------------------------|
   soul.___                    
 
 
   E5       Bb5      E5 G5   E5    A5 E5       F5
   Gtr.2 
E|-------------------------|-------------------------|
B|-------------------------|-------------------------|
G|-------------------------|-------------------------|
D|-2-------/8--8-------/5--|-5-------/7--7--------3--|
A|-2-------/8--8-------/5--|-5-------/7--7--------3--|
E|-0-----0-----------0-----|-------0-----------0-----| 
 | Synth.~~~~~~~~~~~~~~~~~~~~~~~~~~~~~~~~   1
E|-------------------------|-------------------------|
B|-------------------------|-------------------------|
G|-7^9---------------------|---------------7b--------|
D|-------------------------|-------------------------|
A|-------------------------|-------------------------|
E|-------------------------|-------------------------|
 
 
   E5       Bb5      E5 G5   E5    A5 E5       F5
   Gtr.2 
E|-------------------------|-------------------------|
B|-------------------------|-------------------------|
G|-------------------------|-------------------------|
D|-2-------/8--8-------/5--|-5-------/7--7--------3--|
A|-2-------/8--8-------/5--|-5-------/7--7--------3--|
E|-0-----0-----------0-----|-------0-----------0-----| 
 | Synth.
 |harm.  __3__ ___3___ 1     __3__ _3_ _3__ _3_ __3__
E|-------------------------|--12--12-12-12-----------|
B|12------12-----12---8b-10|----10--9--8--8-8-8------|
G|----9------9-9----7------|--------------------9^7--|
D|-------------------------|-----------------------9-|
A|-------------------------|-------------------------|
E|-------------------------|-------------------------|
 
 
   E5       Bb5      E5 G5   E5    A5 E5       F5
   Gtr.2 
E|-------------------------|-------------------------|
B|-------------------------|-------------------------|
G|-------------------------|-------------------------|
D|-2-------/8--8-------/5--|-5-------/7--7--------3--|
A|-2-------/8--8-------/5--|-5-------/7--7--------3--|
E|-0-----0-----------0-----|-------0-----------0-----| 
 | Synth.             __3__  ~~~~               __3__
E|--12------------12-11--11|10-----10----------------|
B|12------------12-----12--|-----12--10-10^14--10----|
G|------------11-----------|---------------------9^11|
D|-------------------------|-------------------------|
A|-------------------------|-------------------------|
E|-------------------------|-------------------------|
 
 
 
   E5                        Bb5     E5                     G5   
   Gtr.2 
E|---------------------------------------------------------------|
B|---------------------------------------------------------------|
G|---------------------------------------------------------------|
D|-2------------------------/8-------2---------------------/5----|
A|-2------------------------/8-------2---------------------/5----|
E|-0---------------0-----------------0---------------0-----------| 
 | Synth.                    
 | __3__  ___3____
E|10^9--------9^10--------9-10--------9-10--------9-10^9-----9-12|
B|----12-10-12----12^10^12----12^10^12----12^10^12------10-12----|
G|---------------------------------------------------------------|
D|---------------------------------------------------------------|
A|---------------------------------------------------------------|
E|---------------------------------------------------------------|
 
 
                       A5                  E5 F5
   Gtr.2 
E|-----------------------------------------------|
B|-----------------------------------------------|
G|-----------------------------------------------|
D|--------2-----------/7-------------------2--3--|
A|--------2-----------/7-------------------2--3--|
E|---------------0-------------------------0--1--| 
 | Synth.                                w/bar                 
E|-----12-----10--------------12-----10--(10)\---|
B|10^12--12^10--10----10-12^14--12^10------------|
G|----------------9^12--9------------------------|
D|-----------------------------------------------|
A|-----------------------------------------------|
E|-----------------------------------------------|
 
 
 
    E5                      G5
    Gtr.2 
E|-----------------------|--------------------------|
B|-----------------------|--------------------------|
G|3----------------------|7-------------------------|
D|4----------------------|8-------------------------|
A|-----------------------|--------------------------|
E|--0-0-0-0--0--0-0-0-0--|--3-3-3-3--3--3-3-3-3--3--| 
 | w/bar_ _ _ _ _ _ _ _ _ _ _ _ _ _ _ _ _ _                 
E|-----------------------|--------------------------|
B|-12^15-----------------|-12^15-----------14^15----|
G|3----------------------|7--------------------16^14|
D|4----------------------|8-------------------------|
A|-----------------------|--------------------------|
E|-----------------------|--------------------------|
 
 
 
    A5                  
    Gtr.2 
E|------------------------------------------------------------|
B|------------------------------------------------------------|
G|3-----------------------------------------------------------|
D|4-----------------------------------------------------------|
A|---0----0----0----0----------0------------0----0--0---0-----|
E|------------------------------------------------------------| 
 |  Synth.                                       __3__  __3__
E|------------------------------------------------------------|
B|----14-15--------14-15--------14-15^14^12-----15------------|
G|3-16-----16-14-16-----16-14-16-----------14-12--12^14-------|
D|4----------------------------------------------------14^12--|
A|----------------------------------------------------------14|
E|------------------------------------------------------------|
 
 
 
     C5                                                 B5                  
     Gtr.2 
E|-----------------------------------------------------------------------------------|
B|-----------------------------------------------------------------------------------|
G|4----------------------------------------------------------------------------------|
D|4----------------------------------------------------------------------------------|
A|---3----3----3----3-----------3--------3---3---^---2-----2--------0----------------|
E|---------------------------------------------------------------------------3-^-0---| 
 |   Synth.                                  __3__
E|------------------------------------------------------------------------17---------|
B|-------------------------------------------------------------------15-17--15--15-17|
G|4------14---------------------------14---------12-14-15-14-12-14-16---------16-----|
D|4-12^14--14^12-----------------12-14--12--12^14------------------------------------|
A|--------------14^12^10-12^13^14---------14-----------------------------------------|
E|-----------------------------------------------------------------------------------|
 
 
 
    E5                      G5                         A5
    Gtr.2 
E|-----------------------|--------------------------|------------------------------------|
B|-----------------------|--------------------------|------------------------------------|
G|3----------------------|7-------------------------|3-----------------------------------|
D|4----------------------|8-------------------------|4-----------------------------------|
A|-----------------------|--------------------------|--0-0-0-0--0----0---0-0----0--------|
E|--0-0-0-0--0--0-0-0-0--|--3-3-3-3--3--3-3-3-3--3--|------------------------------------|
 |  Synth.
 |  ~~~~~~~ ~~~~~  ~~~~~~   ~~~~~~~ ~~~~~ ~~~~~~       1
E|-12------14----15------|-17------19-----------19--|-22b-----19^22^19-------------------|
B|-----------------------|---------------20---------|-----------------22-------22^20-----|
G|3----------------------|7-------------------------|3------------------19---------------|
D|4----------------------|8-------------------------|4--------------------19^21-----19^21|
A|-----------------------|--------------------------|------------------------------------|
E|-----------------------|--------------------------|------------------------------------|
 
 
 
     C5                                  N.C.              
     Gtr.2 
E|------------------------------------------------------------------|
B|------------------------------------------------------------------|
G|4-----------------------------------------------------------------|
D|4--------------------------------------2---0----------------------|
A|---3----3----3----3-------3--------3----------2-----1---0^1^0-----|
E|-------------------------------------------------------------3-0--| 
 |   Synth.                                                      1  
E|------------------------------------------------------------------|
B|-------15-----------------------------------------------------15b-|
G|4----------------14--14--14-14^12-14--14--14-14^12-14--12^14------|
D|4-14^17--17^14^17--14--12-----------12--12-----------12-----12----|
A|------------------------------------------------------------------|
E|------------------------------------------------------------------|
 
 
 
    E5                      
    Gtr.2 
    P.M._ _ _ _ _ _ _ _ _ _ _ _ _ _ _ _ _ _ _ _ _ _ _ _ _ _ _ _ _ _ _ _ _ _ _
E|-----------------------|---------------------------|-----------------------|
B|-----------------------|---------------------------|-----------------------|
G|3----------------------|7--------------------------|3----------------------|
D|4----------------------|8--------------------------|4----------------------|
A|-----------------------|---------------------------|-----------------------|
E|--0-0-0-0--0--0-0-0-0--|--0-0-0-0--0--0-0-0-0--0-0-|--0-0-0-0--0--0-0-0-0--|
 |  Synth.                                    w/fdbk.
E|-----------------------|---------------------------|-----------------------|
B|-(15b)-----------------|-(15b)---------------------|-(15b)-----------------|
G|3----------------------|7--------------------------|3----------------------|
D|4----------------------|8--------------------------|4----------------------|
A|-----------------------|---------------------------|-----------------------|
E|-----------------------|---------------------------|-----------------------|
                                                                          
 
                                   E5
    Gtr.2 
    P.M._ _ _ _ _ _ _ _ _ _ _ _ _ _ _ _ _ _ _ _ _ _ _ _ _ _ _ _ _ _ _ _ _ _ _ _ _ _ _ _
E|------------------------------|-----------------------|------------------------------|
B|------------------------------|-----------------------|------------------------------|
G|4-----------------------------|3----------------------|4-----------------------------|
D|4-----------------------------|4-2-2-2-2--2--2-2-2-2--|4-2-2-2-2--2--2-2-2-2--2-2-2--|
A|------------------------------|--2-2-2-2--2--2-2-2-2--|--2-2-2-2--2--2-2-2-2--2-2-2--|
E|--0-0-0-0--0--0-0-0-0--0-0-0--|--0-0-0-0--0--0-0-0-0--|--0-0-0-0--0--0-0-0-0--0-0-0--|
 |  Synth.
 |   w/bar
E|------------------------------|
B|-(15b)\-----------------------|
G|4-----------------------------|
D|4-----------------------------|
A|------------------------------|
E|------------------------------|
                             Re - spon-si-ble think-ers throw cau-tion to the wind. But
 
 
    Gtr.2 
    P.M._ _ _ _ _ _ _ _ _ _ _ _ _ _ _ _ _ _ _ _ _ _ _ _
E|-----------------------|------------------------------|
B|-----------------------|------------------------------|
G|3----------------------|4-----------------------------|
D|4-2-2-2-2--2--2-2-2-2--|4-2-2-2-2--2--2-2-2-2--2-2-2--|
A|--2-2-2-2--2--2-2-2-2--|--2-2-2-2--2--2-2-2-2--2-2-2--|
E|--0-0-0-0--0--0-0-0-0--|--0-0-0-0--0--0-0-0-0--0-0-0--|
    I find my-self____      speak-ing from with-in.__ I
 
 
    Gtr.2 
    P.M._ _ _ _ _ _ _ _ _ _ _ _ _ _ _ _ _ _ _ _ _ _ _ _
E|-----------------------|------------------------------|
B|-----------------------|------------------------------|
G|3----------------------|4-----------------------------|
D|4-2-2-2-2--2--2-2-2-2--|4-2-2-2-2--2--2-2-2-2--2-2-2--|
A|--2-2-2-2--2--2-2-2-2--|--2-2-2-2--2--2-2-2-2--2-2-2--|
E|--0-0-0-0--0--0-0-0-0--|--0-0-0-0--0--0-0-0-0--0-0-0--|
    can't live my life___   walk-ing on egg-shells to
 
 
                             Bb5           F#5
    Gtr.2 
    P.M._ _ _ _ _ _ _ _ _
E|------------------------|------------------------------|
B|------------------------|------------------------------|
G|3-----------------------|4-3-3-3-3--3--3---------------|
D|4-2-2-2-2--2--2-2-2-2-x-|4-3-3-3-3--3--3-4-4-4--4-4-4--|
A|--2-2-2-2--2--2-2-2-2-x-|--1-1-1-1--1--1-4-4-4--4-4-4--|
E|--0-0-0-0--0--0-0-0-0-x-|--1-1-1-1--1--1-2-2-2--2-2-2--|
    stay on your good side.
 
 
    E5
    Gtr.2 
    P.M._ _ _ _ _ _ _       P.M._ _ _ _ _ _ _    P.M.
E|-----------------------|-------------------------------|
B|-----------------------|-------------------------------|
G|3----------------------|4------------------------------|
D|4-2-2-2-2--2--2-2-2-2--|4-2-2-2-2--2--2-----0------0^2-|
A|--2-2-2-2--2--2-2-2----|--2-2-2-2--2--2----------------|
E|--0-0-0-0--0--0-0-0----|--0-0-0-0--0--0-0-0----0-0-----|
 |  Synth.                                    
E|-----------------------|-------------------------------|
B|-----------------------|-------------------------------|
G|3-4--------------------|4-7----------------------------|
D|4----------------------|4------------------------------|
A|-----------------------|-------------------------------|
E|-----------------------|-------------------------------|
    Us-ing your words,_con-trol-ling my life.___      You
 
 
    Gtr.2 
    P.M._ _ _ _ _ _ _       P.M._ _ _ _ _ _ _    P.M.
E|-----------------------|-------------------------------|
B|-----------------------|-------------------------------|
G|3----------------------|4------------------------------|
D|4-2-2-2-2--2--2-2-2----|4-2-2-2-2--2--2-----2------0^2-|
A|--2-2-2-2--2--2-2-2-4--|--2-2-2-2--2--2----------------|
E|--0-0-0-0--0--0-0-0----|--0-0-0-0--0--0-0-0----0-0-----|
 |  Synth.                                    
E|-----------------------|-------------------------------|
B|-----------------------|-------------------------------|
G|3-6--------------------|4-3-------------4------1-------|
D|4----------------------|4------------------------------|
A|-----------------------|-------------------------------|
E|-----------------------|-------------------------------|
    see it's my words_ that give you your life.___    So
 
 
 
    Gtr.2 
    P.M._ _ _ _ _ _ _                     P.M.   P.M.
E|-----------------------|-------------------------------|
B|-----------------------|-------------------------------|
G|3----------------------|4------------------------------|
D|4-2-2-2-2--2--2-2-2-2--|4-0-0-0-0--0--0-----0------0^2-|
A|--2-2-2-2--2--2-2-2----|-------------------------------|
E|--0-0-0-0--0--0-0-0----|----------------0-0----0-0-----|
 |  Synth.                                    
E|-----------------------|-------------------------------|
B|-----------------------|-------------------------------|
G|3-4--------------------|4-7----------------------------|
D|4----------------------|4------------------------------|
A|-----------------------|-------------------------------|
E|-----------------------|-------------------------------|
    I hurt your feel-ings,well,I'm real-ly sor-ry, but I
 
 
    C5                       Bb5          F#5
    Gtr.2                                      P.M._ _ 
E|------------------------|----------------------------|
B|------------------------|----------------------------|
G|3-----------------------|4----------3----------------|
D|4-----------------------|4----------3---4------------|
A|--3-3-3-3--3--3-3-3-3-3-|--1-1-1-1--1---4----4-3-2-1-|
E|------------------------|---------------2------------|
 |  Synth.                                    
E|-----------------------|-----------------------------|
B|-----------------------|---------------17------------|
G|3-5--------------------|4-3-----------15-15----------|
D|4----------------------|4------------14--------------|
A|-----------------------|------------------16-15-14-13|
E|-----------------------|-----------------------------|
    don't give a shift.     No!________
 
 
   E5
   Gtr.3 
E|-0--0--0--0--0--0--0--0--0--0--0--0--0--0--0--0--|
B|-5--5--5--5--5--5--5--5--5--5--5--5--5--5--5--5--|
G|-------------------------------------------------|
D|-------------------------------------------------|
A|-------------------------------------------------|
E|-------------------------------------------------| 
 | Gtr.4 
E|------12--0-10-12--0-10-12--0-10-12--0-10-12--0--|
B|-------------------------------------------------|
G|-------------------------------------------------|
D|-------------------------------------------------|
A|-------------------------------------------------|
E|-------------------------------------------------|
 | Synth.
E|-------------------------------------------------|
B|-------------------------------------------------|
G|-------------------------------------------------|
D|14-----------------------------------------------|
A|-------------------------------------------------|
E|-------------------------------------------------|
   Twist     -       ing,___________
 
 
   G5/D
   Gtr.3 
E|-0--0--0--0--0--0--0--0--0--0--0--0--0--0--0--0--|
B|-8--8--8--8--8--8--8--8--8--8--8--8--8--8--8--8--|
G|-------------------------------------------------|
D|-------------------------------------------------|
A|-------------------------------------------------|
E|-------------------------------------------------| 
 | Gtr.4 
E|10-12--0-10-12--0-10-12--0-10-12--0-10-12--0-10--|
B|-------------------------------------------------|
G|-------------------------------------------------|
D|-------------------------------------------------|
A|-------------------------------------------------|
E|-------------------------------------------------|
   turn      -       ing,__________
 
 
   A5/C#
   Gtr.3
E|-0--0--0--0--0--0--0--0--0--0--0--0--0--0--0--0--|
B|10-10-10-10-10-10-10-10-10-10-10-10-10-10-10-10--|
G|-------------------------------------------------|
D|-------------------------------------------------|
A|-------------------------------------------------|
E|-------------------------------------------------| 
 | Gtr.4 
E|12--0-10-12--0-10-12--0-10-12--0-10-12--0-10-12--|
B|-------------------------------------------------|
G|-------------------------------------------------|
D|-------------------------------------------------|
A|-------------------------------------------------|
E|-------------------------------------------------|
         los  -   ing      all      sense_ of
 
 
   C5                      N.C.
   Gtr.3
E|-0--0--0--0--0--0--0--0--------------------------|
B|13-13-13-13-13-13-13-13--------------------------|
G|-------------------------------------------------|
D|-------------------------------------------------|
A|-------------------------------------------------|
E|-------------------------------------------------| 
 | Gtr.4 
E|-0-10-12--0-10-12--0-10--------------------------|
B|-------------------------------------------------|
G|-------------------------------------------------|
D|-------------------------------------------------|
A|-------------------------------------------------|
E|-------------------------------------------------|
 | Gtr.5                   P.M._ _ _ _ _ _ _ _ _ _
E|-------------------------------------------------|
B|-------------------------------------------------|
G|----------------------------7--------------------|
D|-------------------------9-----7--9--5--7--------|
A|-------------------------------------------5--7--|
E|-------------------------------------------------|
   yearn      -      ing.___
 
 
   E5
   Gtr.3 
E|-0--0--0--0--0--0--0--0--0--0--0--0--0--0--0--0--|
B|-5--5--5--5--5--5--5--5--5--5--5--5--5--5--5--5--|
G|-------------------------------------------------|
D|-------------------------------------------------|
A|-------------------------------------------------|
E|-------------------------------------------------| 
 | Gtr.4 
E|------12--0-10-12--0-10-12--0-10-12--0-10-12--0--|
B|-------------------------------------------------|
G|-------------------------------------------------|
D|-------------------------------------------------|
A|-------------------------------------------------|
E|-------------------------------------------------|
   Liv       -       ing___________  and
 
 
   G5
   Gtr.3 
E|-0--0--0--0--0--0--0--0--0--0--0--0--0--0--0--0--|
B|-8--8--8--8--8--8--8--8--8--8--8--8--8--8--8--8--|
G|-------------------------------------------------|
D|-------------------------------------------------|
A|-------------------------------------------------|
E|-------------------------------------------------| 
 | Gtr.4 
E|10-12--0-10-12--0-10-12--0-10-12--0-10-12--0-10--|
B|-------------------------------------------------|
G|-------------------------------------------------|
D|-------------------------------------------------|
A|-------------------------------------------------|
E|-------------------------------------------------|
   learn      -      ing,___________         the
 
 
   A5
   Gtr.3
E|-0--0--0--0--0--0--0--0--0--0--0--0--0--0--0--0--|
B|10-10-10-10-10-10-10-10-10-10-10-10-10-10-10-10--|
G|-------------------------------------------------|
D|-------------------------------------------------|
A|-------------------------------------------------|
E|-------------------------------------------------| 
 | Gtr.4 
E|12--0-10-12--0-10-12--0-10-12--0-10-12--0-10-12--|
B|-------------------------------------------------|
G|-------------------------------------------------|
D|-------------------------------------------------|
A|-------------------------------------------------|
E|-------------------------------------------------|
   pres-sure         keeps___    on
 
 
   B5                      N.C.
   Gtr.3
E|-0--0--0--0--0--0--0--0--------------------------|
B|12-12-12-12-12-12-12-12--------------------------|
G|-------------------------------------------------|
D|-------------------------------------------------|
A|-------------------------------------------------|
E|-------------------------------------------------| 
 | Gtr.4 
E|-0-10-12--0-10-12--0-10--------------------------|
B|-------------------------------------------------|
G|-------------------------------------------------|
D|-------------------------------------------------|
A|-------------------------------------------------|
E|-------------------------------------------------|
 | Gtr.5                   P.M._ _ _ _ _ _ _ _ _ _
E|-------------------------------------------------|
B|-------------------------------------------------|
G|----------------------------7--------------------|
D|-------------------------9-----7--9--5--7--------|
A|-------------------------------------------5--7--|
E|-------------------------------------------------|
   burn       -      ing____           my
 
 
   E5       Bb5      E5 G5   E5    A5 E5       F5
   Gtr.2 
E|-------------------------|-------------------------|
B|-------------------------|-------------------------|
G|-------------------------|-------------------------|
D|-2-------/8--8-------/5--|-5-------/7--7--------3--|
A|-2-------/8--8-------/5--|-5-------/7--7--------3--|
E|-0-----0-----------0-----|-------0-----------0-----| 
 | Gtr.6                
E|-------------------------|-------------------------|
B|-------------------------|-------------------------|
G|-------------------------|-------------------------|
D|-------------------------|-------------------------|
A|-------------------------|-------------------------|
E|-0--0--0--0--------------|-------------------------|
   soul._                    Burn-ing__    my 
  (Burn-ing my soul.__)
 
 
   E5       Bb5      E5 G5   E5    A5 E5       F5
   Gtr.2 
E|-------------------------|-------------------------|
B|-------------------------|-------------------------|
G|-------------------------|-------------------------|
D|-2-------/8--8-------/5--|-5-------/7--7--------3--|
A|-2-------/8--8-------/5--|-5-------/7--7--------3--|
E|-0-----0-----------0-----|-------0-----------0-----| 
 | Gtr.6                
E|-------------------------|-------------------------|
B|-------------------------|-------------------
            
Submit corrections


        Burning My Soul lessons Hard to play? Try these video lessons and learn fast Burning My Soul lessons
        
↑ Back to top | Tablatures and chords for acoustic guitar and electric guitar, ukulele, drums are parodies/interpretations of the original songs. You may use it for private study, scholarship, research or language learning purposes only