» » »

Dream Theater - Another Day Bass

Artists:  A B C D E F G H I J K L M N O P Q R S T U V W X Y Z # 

Another Day Bass

(ver. 3) Click to play this song!
Dream Theater
 Rating:
4/5 (4 votes)

 Another Day lessons Tabs too difficult? Try these video lessons and learn fast
 
                Dream Theater: Another Day




Tuning: Standard (B,E,A,D,G,B)

W                   Q.     S Q.     S E     Q.     S Q    S Q     
B||-------------------|-----------------------|-----------2----L------|
G||-------------------|--1------L-------------|-----------------------|
D||-------------------|-----------4------L-4--|--2------L--------4----|
A||-------------------|-----------------------|-----------------------|
E||-------------------|-----------------------|-----------------------|
B||-------------------|-----------------------|-----------------------|


  Q.     S Q.     S E     Q.     S Q    S Q       Q.     S H        S  
-----------------------|-----------2----L------|----------------------|
--1------L-------------|-----------------------|----------------------|
-----------4------L-4--|--2------L--------4----|----------------------|
-----------------------|-----------------------|----------------------|
-----------------------|-----------------------|--4------L-2--------L-|
-----------------------|-----------------------|----------------------|


  Q.     S Q    S Q       Q.     S H        S    Q.     S H        S  
-----------------------|----------------------|----------------------|
-----------------------|----------------------|----------------------|
-----------------------|----------------------|----------------------|
-----------------------|----------------------|----------------------|
--0------L--------2----|--4------L-2--------L-|-----------0--------L-|
-----------2----L------|----------------------|--2------L------------|


  H           W                   W                   W                 
-----------|-------------------|-------------------|-------------------|
-----------|-------------------|-------------------|-------------------|
-----------|-------------------|-------------------|-------------------|
-----------|-------------------|-------------------|-------------------|
--L--------|-------------------|-------------------|-------------------|
-----------|-------------------|-------------------|-------------------|


  W                   W                   W                   W                 
-------------------|-------------------|-------------------|-------------------|
-------------------|-------------------|-------------------|-------------------|
-------------------|-------------------|-------------------|-------------------|
-------------------|-------------------|-------------------|-------------------|
-------------------|-------------------|-------------------|-------------------|
-------------------|-------------------|-------------------|-------------------|


  W                   H        H           H        S S S S S E.   
-------------------|--------------------|-------------0-0-0-0-0---|
-------------------|--------------------|-------------------------|
-------------------|--------------------|-----------7-------------|
-------------------|--4--------6--------|--7----------------------|
-------------------|--------------------|-------------------------|
-------------------|--------------------|-------------------------|


  H        H           H        H           Q.     S H        S  
--------------------|--------------------|----------------------|
--------------------|--------------------|----------------------|
-----------1--------|--2-----------------|----------------------|
--4-----------------|--------------------|----------------------|
--------------------|-----------2--------|--4------L-2--------L-|
--------------------|--------------------|----------------------|


  Q.     S Q    S Q       Q.     S H        S    Q.     S H        S  
-----------------------|----------------------|----------------------|
-----------------------|----------------------|----------------------|
-----------------------|----------------------|----------------------|
-----------------------|----------------------|----------------------|
--0------L--------2----|--4------L-2--------L-|-----------0--------L-|
-----------2----L------|----------------------|--2------L------------|


  Q.     S H        S    Q.     S H        S    Q.     S H        S  
----------------------|----------------------|----------------------|
----------------------|----------------------|----------------------|
----------------------|----------------------|----------------------|
----------------------|----------------------|-----------2--------L-|
--4------L-4--------L-|--4------L-2--------L-|--0------L------------|
----------------------|----------------------|----------------------|


  Q.     S Q    S Q       Q.     S H        S    Q.     S H        S  
-----------------------|----------------------|----------------------|
-----------------------|----------------------|----------------------|
-----------------------|----------------------|----------------------|
--0------L-------------|----------------------|----------------------|
-----------2----L-0----|--4------L-4--------L-|--4------L-2--------L-|
-----------------------|----------------------|----------------------|


  Q.     S H        S    E.  S Q    H         
----------------------|----------------------|
----------------------|----------------------|
----------------------|----------------------|
-----------2--------L-|--0---0-0-------------|
--0------L------------|-------------4--------|
----------------------|----------------------|


  S S S S S S S S S S S S S S S S    S S S S S S S S S S S S S S S S  
----------------------------------|--------------------0-0-0-0-0-0-0-|
----------------------------------|------------------2---------------|
------------------1-1-1-1-1-----1-|--2-2-2-2-2-2-2-2-----------------|
--4---4---4---2-4-----------4-4---|----------------------------------|
----------------------------------|----------------------------------|
----------------------------------|----------------------------------|


  S S S S S S S S S S S S S S S S  
----------------------------------|
----------------------------------|
------------------1-1-1-1-1-1-1-1-|
--4-4-4-4-4-4-2-4-----------------|
----------------------------------|
----------------------------------|


  S S S S S S S S E  T. T T. T. T T. T. T T.    E.  S E.  E  S Q.      
---------------------------------------------|------------0-----------|
---------------------------------------------|------------------------|
--2-2-2-2-2-2-2-2-4--L--2-1------------------|------------------------|
-----------------------------4--2-3--1----0--|--2---2-2------2-2------|
----------------------------------------2----|------------------------|
---------------------------------------------|------------------------|


  E.  S E.  E  S E  Q       E.  S E.  S S S E  Q       H        E  E  E  E   
-------------------------|--------------------------|-----------------------|
-----------------2-------|--------------------------|-----------------------|
-------------------------|--------------------------|--------------2--------|
--0---0-0---0--0----0----|--------------------------|--------------------1--|
-------------------------|--4---4-4---4---4-4--4----|--2--------0-----4-----|
-------------------------|--------------------------|-----------------------|


  E.  S E.  E  S E  Q       E.  S E.  E  S Q.        E.  S E.  S S S Q.      
---------------0-0-------|------------------------|-------------------------|
-------------------------|---------------2--------|--------1-----1-1--------|
-------------------------|------------------------|-------------------------|
--2---2-2---2------------|--0---0-0---0----0------|-------------------------|
--------------------2----|------------------------|--4---4-----4-----4------|
-------------------------|------------------------|-------------------------|


  H        H           E  S S E  S S E  E.  S S S  
--------------------|-----------------------------|
--------------------|-----------------------------|
--------------------|-----------------------------|
--------------------|-----------------------------|
--2--------0--------|--3--3-3-3--3-3-3--3---3-3-3-|
--------------------|-----------------------------|


  E  S S E  S S E  E.  S S S    S S S S S S S S S S S S S S S S  
-----------------------------|----------------------------------|
-----------------------------|----------------------------------|
-----------------------------|----------------------------------|
-----------------------------|----------------------------------|
--3--3-3-3--3-3-3--3---3-3-3-|--2-2-2-2-2-2-2-2-2-2-2-2-2-2-2-2-|
-----------------------------|----------------------------------|


  E  S S Q    E  E  E  E     Q    E  E  E  S E.  S S  
--------------------3-----|-------1--------1-1-------|
--------------------------|--------------------------|
--------------0--0-----0--|--------------------------|
--------------------------|--3-------3--3--------3-3-|
--0--0-0-0----------------|--------------------------|
--------------------------|--------------------------|


  E  S S E  S S S S S S S S S S  
--------------------------------|
--------------------------------|
--------------------------------|
--2--2-2-2--2-2-2-2-2-2-2-2-2-2-|
--------------------------------|
--------------------------------|


  E  T. T T. T T X S. T T. E  T. T T. T T X S. T T.  
----------------------------------------------------|
----------------------------------------------------|
----------0--2-----2--0------------0--2-----2--0----|
--------2---------------2--------2---------------2--|
--0--L---------------------0--L---------------------|
----------------------------------------------------|


  Q    S X S. S X S Q    E  S    E.  S E  S E  S Q.      
------------------------------|-------------------------|
------------------------------|-------------------------|
------------------------------|-------------------------|
------------------------------|-------------------------|
--2----2-L-2--2-L-2-----------|--4---4-4--4-4--4-4------|
------------------------------|-------------------------|


  Q.     S E  S Q.        Q.     S E  S Q.        E.  S E.  Q    S E  E   
-----------------------|-----------------------|-------------------------|
-----------------------|-----------------------|-------------------------|
-----------------------|-----------------------|-------------------------|
-----------------------|-----------2--2-2------|--0---0-0----------------|
--4------L-2--2-2------|--0------L-------------|------------2----L-0--0--|
-----------------------|-----------------------|-------------------------|


  E.  S E.  E.  Q.        E.  S E.  H        S    E.  S E.  H        S  
-----------------------|-----------------------|-----------------------|
-----------------------|-----------------------|-----------------------|
-----------------------|-----------------------|-----------------------|
-----------------------|-----------------------|------------2--------L-|
--4---4-4---4---4------|--4---4-4---2--------L-|--0---0-0--------------|
-----------------------|-----------------------|-----------------------|


  H        H           S S S S S S S S S S S S S S S S  
--------------------|----------------------------------|
--------------------|----------------------------------|
--------------------|------------------1-1-1-1-1-----1-|
--0-----------------|--4-4-4-4-4-4-4-4-----------4-4---|
-----------4--------|----------------------------------|
--------------------|----------------------------------|


  S S S S S S S S S S S S S S S S    S S S S S S S S S S S S S S S S  
--------------------0-0-0-0-0-0-0-|----------------------------------|
------------------2---------------|----------------------------------|
--2-2-2-2-2-2-2-2-----------------|------------------1-1-1-1-1-1-1-1-|
----------------------------------|--4-4-4-4-4-4-2-4-----------------|
----------------------------------|----------------------------------|
----------------------------------|----------------------------------|


  S S S S S S S S H           W                   Q.     S H        S  
---------------------------|-------------------|----------------------|
---------------------------|-------------------|----------------------|
--2-2-2-2-2-2-2-2----------|-------------------|----------------------|
---------------------------|-------------------|----------------------|
------------------2--------|--L----------------|--4------L-2--------L-|
---------------------------|-------------------|----------------------|


  Q.     S Q    S Q       Q.     S H        S    Q.     S Q    S Q     
-----------------------|----------------------|-----------------------|
-----------------------|----------------------|-----------------------|
-----------------------|----------------------|-----------------------|
-----------------------|----------------------|-----------------------|
--0------L-4----L-2----|--4------L-2--------L-|--0------L-4----L-2----|
-----------------------|----------------------|-----------------------|


  Q.     S H        S    Q.     S Q    S Q       Q.     S H        S  
----------------------|-----------------------|----------------------|
----------------------|-----------------------|----------------------|
----------------------|-----------------------|----------------------|
----------------------|-----------------------|----------------------|
--4------L-2--------L-|--0------L-4----L-2----|--4------L-2--------L-|
----------------------|-----------------------|----------------------|


  Q.     S Q    S Q       W                   W                  
-----------------------|-------------------|-------------------||
-----------------------|-------------------|-------------------||
-----------------------|-------------------|-------------------||
-----------------------|-------------------|-------------------||
--0------L-4----L-2----|--0----------------|-------------------||
-----------------------|-------------------|-------------------||




Duration Legend
---------------
W - whole
H - half
Q - quarter
E - 8th
S - 16th
T - 32nd
X - 64th
. - note dotted
|-n-|  - n-tuplets


Tablature Legend
----------------
L - tied note
x - dead note
g - grace note
(n) - ghost note
> - accentuded note
NH - natural harmonic
AH - artificial harmonic
TH - tapped harmonic
SH - semi harmonic
PH - pitch harmonic
h - hammer on
p - pull off
b - bend
br - bendRelease
pb - preBend
pbr - preBendRelease
brb - bendReleaseBend
\n/ - tremolo bar dip
\n - tremolo bar dive
-/n - tremolo bar Release up
/n\ - tremolo bar inverted dip
/n - tremolo bar return
-\n - tremolo bar Release down
S - shift slide
s - legato slide
/ -  slide into from below or out of upwards
\ -  slide into from above or out of downwards
~ - vibrato
W - wide vibrato
tr - trill
TP - tremolo picking
T - tapping
S - slap
P - pop
< - fade in
^ - brush up
v - brush down
            
Submit corrections


        Another Day lessons Hard to play? Try these video lessons and learn fast Another Day lessons
        
↑ Back to top | Tablatures and chords for acoustic guitar and electric guitar, ukulele, drums are parodies/interpretations of the original songs. You may use it for private study, scholarship, research or language learning purposes only