» » »

Dream Theater - Another Day Bass

Artists:  A B C D E F G H I J K L M N O P Q R S T U V W X Y Z # 

Another Day Bass

(ver. 2) Click to play this song!
Dream Theater
 Rating:
4/5 (4 votes)

 Another Day lessons Tabs too difficult? Try these video lessons and learn fast
 
                Another Day                                   
Dream Theater 

First Tab, It's For A Friend :)





                         Q.     S S Q.     E     Q.     S S Q    Q     
G||-------------------|--1------L-------------|-----------6-L---------|
D||-------------------|-----------4-L------4--|--2------L--------4----|
A||-------------------|-----------------------|-----------------------|
E||-------------------|-----------------------|-----------------------|


  Q.     S S Q.     E     Q.     S S Q    Q       Q.     S S H         
--1------L-------------|-----------6-L---------|----------------------|
-----------4-L------4--|--2------L--------4----|----------------------|
-----------------------|-----------------------|----------------------|
-----------------------|-----------------------|--4------L-2-L--------|


  Q.     S S Q    Q       Q.     S S H           Q.     S S H         
-----------------------|----------------------|----------------------|
-----------------------|----------------------|----------------------|
-----------4-L---------|----------------------|--4------L------------|
--0------L--------2----|--4------L-2-L--------|-----------0-L--------|


  H                                                                     
-----------|-----------|-----------|-----------|-----------|-----------|
-----------|-----------|-----------|-----------|-----------|-----------|
-----------|-----------|-----------|-----------|-----------|-----------|
--L--------|-----------|-----------|-----------|-----------|-----------|


                                      H        H         
-----------|-----------|-----------|--------------------|
-----------|-----------|-----------|--------------------|
-----------|-----------|-----------|--4--------6--------|
-----------|-----------|-----------|--------------------|


  Q    Q    S S S S S E.     H        H           H        H         
--------------4-4-4-4-4---|--------------------|--------------------|
------------7-------------|-----------1--------|--2-----------------|
--7----L------------------|--4-----------------|--------------------|
--------------------------|--------------------|-----------2--------|


  Q.     S S H           Q.     S S Q    Q       Q.     S S H         
----------------------|-----------------------|----------------------|
----------------------|-----------------------|----------------------|
----------------------|-----------4-L---------|----------------------|
--4------L-2-L--------|--0------L--------2----|--4------L-2-L--------|


  Q.     S S H           Q.     S S H           Q.     S S H         
----------------------|----------------------|----------------------|
----------------------|----------------------|----------------------|
--4------L------------|----------------------|----------------------|
-----------0-L--------|--4------L-4-L--------|--4------L-2-L--------|


  Q.     S S H           Q.     S S Q    Q       Q.     S S H         
----------------------|-----------------------|----------------------|
----------------------|-----------------------|----------------------|
-----------2-L--------|--0------L-------------|----------------------|
--0------L------------|-----------2-L----0----|--4------L-4-L--------|


  Q.     S S H           Q.     S S H           E.  S Q    H         
----------------------|----------------------|----------------------|
----------------------|----------------------|----------------------|
----------------------|-----------2-L--------|--0---0-0-------------|
--4------L-2-L--------|--0------L------------|-------------4--------|


  S S S S S S S S S S S S S S S S    S S S S S S S S S S S S S S S S  
----------------------------------|------------------2-4-4-4-4-4-4-4-|
------------------1-1-1-1-1-----1-|--2-2-2-2-2-2-2-2-----------------|
--4---4---4---2-4-----------4-4---|----------------------------------|
----------------------------------|----------------------------------|


                                                        |-3-| |-3-| |-3-|  
  S S S S S S S S S S S S S S S S    S S S S S S S S E  S S S S S S S S S  
----------------------------------|---------------------------------------|
------------------1-1-1-1-1-1-1-1-|--2-2-2-2-2-2-2-2-4--L-2-1-------------|
--4-4-4-4-4-4-2-4-----------------|---------------------------4-2-3-1---0-|
----------------------------------|-----------------------------------2---|


  E.  S E.  S S S Q.        E.  S E.  S S S E  Q       E.  S E.  S S S E  Q     
------------4-L----------|------------------2-------|--------------------------|
-------------------------|--------------------------|--------------------------|
--2---2-2-------2-2------|--0---0-0---0-L-0----0----|--------------------------|
-------------------------|--------------------------|--4---4-4---4-L-4-4--4----|


  H        E  E  E  E     E.  S E.  S S S E  Q       E.  S E.  S S S Q.      
-----------------------|----------------4-4-------|----------------2--------|
--------------2--------|--------------------------|-------------------------|
--------------------1--|--2---2-2---2-L-----------|--0---0-0---0-L---0------|
--2--------0-----4-----|---------------------2----|-------------------------|


  E.  S E.  S S S Q.        H        H           E  S S E  S S E  E  S S S S  
--------1-----1-1--------|--------------------|------------------------------|
-------------------------|--------------------|------------------------------|
-------------------------|--------------------|------------------------------|
--4---4-----4-----4------|--2--------0--------|--3--3-3-3--3-3-3--3--L-3-3-3-|


  E  S S E  S S E  E  S S S S    S S S S S S S S S S S S S S S S  
------------------------------|----------------------------------|
------------------------------|----------------------------------|
------------------------------|----------------------------------|
--3--3-3-3--3-3-3--3--L-3-3-3-|--2-2-2-2-2-2-2-2-2-2-2-2-2-2-2-2-|


  E  S S Q    E  E  E  E     Q    E  E  E  S E.  S S  
--------------------7-----|-------5--------5-5-------|
--------------0--0-----0--|--------------------------|
--------------------------|--3-------3--3--------3-3-|
--0--0-0-0----------------|--------------------------|


                                   |---3--| |-6-| |-6-| |---3--| |-6-| |-6-|  
  E  S S E  S S S S S S S S S S    Q    S S S S S S S S Q    S S S S S S S S  
--------------------------------|--------------------------------------------|
--------------------------------|---------0-2---2-L-0----------0-2---2-L-0---|
--2--2-2-2--2-2-2-2-2-2-2-2-2-2-|-------2-------------2------2-------------2-|
--------------------------------|--0--------------------0--------------------|


       |--3--|                                                                 
  Q    E  E  E  E  Q    E     E.  S E  S E  S Q.        Q    E.  S S S Q.      
---------------------------|-------------------------|------------------------|
---------------------------|-------------------------|------------------------|
---------------------------|-------------------------|------------------------|
--2----2--2--2--2----------|--4---4-4--4-4--4-4------|--4----L---2-L-2-2------|


  Q    E.  S S S Q.        E.  S E.  S Q    E  E     E.  S E.  S E  E  Q     
------------------------|-------------------------|-------------------------|
------------------------|-------------------------|-------------------------|
-----------2-L-2-2------|--0---0-0----------------|-------------------------|
--0----L----------------|------------2-L----0--0--|--4---4-4---4-L--4--L----|


  E.  S E.  S H           E.  S E.  S H           H        H         
-----------------------|-----------------------|--------------------|
-----------------------|-----------------------|--------------------|
-----------------------|------------2-L--------|--0-----------------|
--4---4-4---2-L--------|--0---0-0--------------|-----------4--------|


  S S S S S S S S S S S S S S S S    S S S S S S S S S S S S S S S S  
----------------------------------|------------------2-4-4-4-4-4-4-4-|
------------------1-1-1-1-1-----1-|--2-2-2-2-2-2-2-2-----------------|
--4-4-4-4-4-4-4-4-----------4-4---|----------------------------------|
----------------------------------|----------------------------------|


  S S S S S S S S S S S S S S S S    S S S S S S S S H         
----------------------------------|---------------------------|
------------------1-1-1-1-1-1-1-1-|--2-2-2-2-2-2-2-2----------|
--4-4-4-4-4-4-2-4-----------------|---------------------------|
----------------------------------|------------------2--------|


  W                   Q.     S S H           Q.     S S Q    Q     
-------------------|----------------------|-----------------------|
-------------------|----------------------|-----------------------|
-------------------|----------------------|-----------------------|
--L----------------|--4------L-2-L--------|--0------L-4-L----2----|


  Q.     S S H           Q.     S S Q    Q       Q.     S S H         
----------------------|-----------------------|----------------------|
----------------------|-----------------------|----------------------|
----------------------|-----------------------|----------------------|
--4------L-2-L--------|--0------L-4-L----2----|--4------L-2-L--------|


  Q.     S S Q    Q       Q.     S S H           Q.     S S Q    Q     
-----------------------|----------------------|-----------------------|
-----------------------|----------------------|-----------------------|
-----------------------|----------------------|-----------------------|
--0------L-4-L----2----|--4------L-2-L--------|--0------L-4-L----2----|


  W                   W                  
-------------------|-------------------||
-------------------|-------------------||
-------------------|-------------------||
--0----------------|--L----------------||




Duration Legend
---------------
W - whole
H - half
Q - quarter
E - 8th
S - 16th
T - 32nd
X - 64th
. - note dotted
|-n-|  - n-tuplets


Tablature Legend
----------------
L - tied note
x - dead note
g - grace note
(n) - ghost note
> - accentuded note
NH - natural harmonic
AH - artificial harmonic
TH - tapped harmonic
SH - semi harmonic
PH - pitch harmonic
h - hammer on
p - pull off
b - bend
br - bendRelease
pb - preBend
pbr - preBendRelease
brb - bendReleaseBend
\n/ - tremolo bar dip
\n - tremolo bar dive
-/n - tremolo bar Release up
/n\ - tremolo bar inverted dip
/n - tremolo bar return
-\n - tremolo bar Release down
S - shift slide
s - legato slide
/ -  slide into from below or out of upwards
\ -  slide into from above or out of downwards
~ - vibrato
W - wide vibrato
tr - trill
TP - tremolo picking
T - tapping
S - slap
P - pop
< - fade in
^ - brush up
v - brush down
            
Submit corrections


        Another Day lessons Hard to play? Try these video lessons and learn fast Another Day lessons
        
↑ Back to top | Tablatures and chords for acoustic guitar and electric guitar, ukulele, drums are parodies/interpretations of the original songs. You may use it for private study, scholarship, research or language learning purposes only