» » »

Dream Theater - Anna Lee Tabs

Artists:  A B C D E F G H I J K L M N O P Q R S T U V W X Y Z # 

Anna Lee Tabs

(ver. 2) Click to play this song!
Dream Theater
 Rating:
4/5 (4 votes)

 Anna Lee lessons Tabs too difficult? Try these video lessons and learn fast
 
                ---------     ---------    --      --   --    --    --      --
----          --     --    ----    --   --    --    ----    --
----          ---------    -- --   --   --    --    -- --   -- 
---------     ---------    --  --  --   --    --    --  --  -- 
     ----     --     --    --   -- --   --    --    --   -- -- 
     ----     --     --    --    ----   --    --    --    ----
---------     --     --    --      --   --    --    --      -- 
                                        --
                                  --    --
                                    ----

Overdriven guitar!!!!


                                                                               
E||------------------|------------------|------------------|------------------|
B||------------------|------------------|------------------|------------------|
G||------------------|------------------|------------------|------------------|
D||------------------|------------------|------------------|------------------|
A||------------------|------------------|------------------|------------------|
E||------------------|------------------|------------------|------------------|


                                                                            
                                                                            
------------------|------------------|------------------|------------------|
------------------|------------------|------------------|------------------|
------------------|------------------|------------------|------------------|
------------------|------------------|------------------|------------------|
------------------|------------------|------------------|------------------|
------------------|------------------|------------------|------------------|


                                                                                                                
-----------------------------|---------9---------7------|
-----------------------------|-----10---------------10--|
----12--12---11~----11/9/7/9-|--9~------------9---------|
-----------------------------|--------------------------|
-----------------------------|--------------------------|
-----------------------------|--------------------------|


                                                          
----------10----------9------|---------9------------9----|
------10-----------------12--|-----10-----10-----8-------|
--10--------------10---------|--9-------------9----------|
-----------------------------|---------------------------|
-----------------------------|---------------------------|
-----------------------------|---------------------------|


                                                              
----------10------12--10----------|---------9---------7------|
------10------10----------10------|-----10---------------10--|
--10--------------------------10--|--9-------------9---------|
----------------------------------|--------------------------|
----------------------------------|--------------------------|
----------------------------------|--------------------------|


                                                          
----------10----------9------|---------9------------9----|
------10-----------------12--|-----10-----10-----8-------|
--10--------------10---------|--9-------------9----------|
-----------------------------|---------------------------|
-----------------------------|---------------------------|
-----------------------------|---------------------------|


                                                         
----------10------12--10----------|---------------------|
------10------10----------10------|---------------------|
--10--------------------------10--|------------6/-4-----|
----------------------------------|------------------6--|
----------------------------------|---------------------|
----------------------------------|---------------------|


                                                         
---------------------------|----------------------------|
---------------------------|--15-14-15~---15~-----14----|
-------------11----12--14--|----------------------------|
--7/6/7~-------------------|----------------------------|
---------------------------|----------------------------|
---------------------------|----------------------------|


                                                                              
------------------------------|----------------------|-----------------------|
--14/12-12~-------------------|----------------------|--------------8-7------|
----------------11/9-9-9/--7/-|--12------------12/---|--7---------------7-7/-|
---------------------------7/-|--12------------12/---|--7-----------------7/-|
------------------------------|----------------------|-----------------------|
------------------------------|----------------------|-----------------------|


                                                             
----------------------------------|-------------------------|
------------13/12-13/12-13/12-----|-----7-----------7--7/---|
--12--------------------------12/-|--7--------7--7--7--7/---|
--12--------------------------12/-|--7-----7-----7----------|
----------------------------------|-------------------------|
----------------------------------|-------------------------|


                                                                     
----------------------|------------------------|--------------------|
----------------------|--------------12/-------|--------------------|
----------------------|--0----0---0--12/-------|--------------------|
----------------------|--0------0-0--12/-------|--------------------|
----------------------|------------------------|--7~-------5--------|
--2~-----2~-----2---0-|--3---------------------|--------------------|


                                                           
--------------------|------------------|------------------|
--------------------|------------------|------------------|
--------------------|------------------|------------------|
--------------------|------------------|------------------|
--3--------6--------|------------------|------------------|
--------------------|------------------|------------------|


                                                                               
--------------------------|-------------------------|-------------------------|
--------------------------|-------------------------|-------------------------|
--------------------------|-------------------------|-------------------------|
--5--5--5--3--3--3--3--3--|-------3--------3--3-----|-------3----6----6-------|
--5--5--5--3--3--3--3--3--|-------------------------|-------------------------|
--3--3--3--3--3--3--3--1--|----1-----1--1--------1--|--1-----------1----1--1--|


                                                         
-------------------------|------------------------------|
-------------------------|------------------------------|
-------------------------|-------------------------5-5--|
-------3-----------3-----|--------3--3-3-------3-7---5--|
-------------------------|-----------------3-5-------3--|
----1-----1--1--1-----1--|--1--1---------5--------------|


                                                          
-------------------------|-------------------------------|
-------------------------|-------------------------------|
-------5--3--3-----------|-------------------------------|
-------5--3-----3-----3--|--8--8--8--10--10----------10--|
----3-----1--------5-----|--6--6--6--8-----------12------|
-------------------------|-------------------12----------|


                                                                           
-------------------------|---------------------|--------------------------|
-------------------------|---------------------|--------------------------|
-------------------------|-----------------2/--|--4~-------4/-2--4/-5--7--|
--6--6--6--8----8----10--|------------10/------|--------------------------|
--4--4--4--6----6----8---|------------8/-------|--------------------------|
-------------------------|---------------------|--------------------------|


                                                         
---------------------------|----------------------------|
---------------------------|----------------------------|
--8----8/-5--8/-7-5-5/-12--|--12/---7~---7/-4--4/-5--7--|
---------------------------|----------------------------|
---------------------------|----------------------------|
---------------------------|----------------------------|


                                                      
---------------------------|-------------------------|
---------------------------|-------------------------|
--7/--8--7/--5--4----------|-------5/----4--4/-5--7--|
------------------5/7/-5-5-|-------5-----------------|
-------------------------5-|-------------------------|
---------------------------|-------------------------|


                                                             
--------------------------|---------------------------------|
----------------------10--|--10/8-8~-----8/-12--12/-13--15--|
--8--------8--7-5--12-----|---------------------------------|
--------------------------|---------------------------------|
--------------------------|---------------------------------|
--------------------------|---------------------------------|


                                                                            
----------------------------------------|----------------------------------|
--15/---13--13-13-13/12-----------------|--------------18--18-18-18/20--18-|
-------------------------14-14/12-12-12-|--12~---12/-----------------------|
----------------------------------------|----------------------------------|
----------------------------------------|----------------------------------|
----------------------------------------|----------------------------------|


                                                                         
----------------------------------|-------------------------------------|
--18---17----------------15r15h12-|--15b-15r----15h13-15-13b------------|
----------17----------------------|-------------------------14~---12-14-|
-------------17~------------------|-------------------------------------|
----------------------------------|-------------------------------------|
----------------------------------|-------------------------------------|


                                                                    
--------------20b-20b20r-20--19b|--19r19-17-15--17-15~----15/------|
--------------------------------|------------------------------14r-|
--14r-14~-----------------------|----------------------------------|
--------------------------------|----------------------------------|
--------------------------------|----------------------------------|
--------------------------------|----------------------------------|


                                                                                
------------------------|------------------------------|-----------------------|
--14~-------14/-----13r-|--13~-------13/---12r12-------|-----------------------|
------------------------|------------------------12----|--12~------------------|
------------------------|---------------------------12-|--------------x--------|
------------------------|------------------------------|--------------x--------|
------------------------|------------------------------|-----------------15/---|


                                                     
----------------------|-----------------------------|
----------------------|-------------10------12--10--|
----------------4--4--|--5h4-5~---------------------|
--2-------------------|-----------------------------|
--2--------3----------|-----------------------------|
--0-------------------|-----------------------------|


                                                                               
--13h12-13~-----------------|------------------------|------------------------|
--------------------15r--15-|--15~-------15/---10/---|--15~-------15----15/---|
----------------------------|------------------10/---|--15~-------15----15/---|
----------------------------|------------------10/---|--15~-------15----15/---|
----------------------------|------------------------|------------------------|
----------------------------|------------------------|------------------------|


                                                                
----------------------------|----------------------------------|
--10----------------10------|--15--------16/15-16/15-16/15-----|
--10----------10-10----10/--|--15--------------------------15/-|
--10------------------------|--15------------------------------|
----------------------------|----------------------------------|
----------------------------|----------------------------------|


                                                         
----------------------------|-------------1-----1-1-1---|
----------10--------10/-----|--1----------1---1-1---1---|
--10----------10----10/-----|----------2----------------|
------10------------10/-----|-----3-------------------0-|
----------------------------|---------------------------|
----------------------------|---------------------------|


                                                                       
----------------------------|--------------------|--------------------|
--4----4h3-3----------------|--------------------|--------------------|
--3--------3----------------|--------------------|--------------------|
--3--------3------3-8/7---7/|--5~-------3~-------|--1~-------4--------|
----------------5-------8---|--------------------|--------------------|
----------------------------|--------------------|--------------------|


                                                                            
------------------|------------------|------------------|------------------|
------------------|------------------|------------------|------------------|
------------------|------------------|------------------|------------------|
------------------|------------------|------------------|------------------|
------------------|------------------|------------------|------------------|
------------------|------------------|------------------|------------------|


                                                          
------------------|------------------|------------------||
------------------|------------------|------------------||
------------------|------------------|------------------||
------------------|------------------|------------------||
------------------|------------------|------------------||
------------------|------------------|------------------||

ThAt'S iT!!! RaTe Me!!!!!!
            
Submit corrections


        Anna Lee lessons Hard to play? Try these video lessons and learn fast Anna Lee lessons
        
↑ Back to top | Tablatures and chords for acoustic guitar and electric guitar, ukulele, drums are parodies/interpretations of the original songs. You may use it for private study, scholarship, research or language learning purposes only