» » »

Dream Theater - Anna Lee Tabs

Artists:  A B C D E F G H I J K L M N O P Q R S T U V W X Y Z # 

Anna Lee Tabs

(ver. 1) Click to play this song!
Dream Theater
 Rating:
4/5 (4 votes)

 Anna Lee lessons Tabs too difficult? Try these video lessons and learn fast
 
                ---------     ---------    --      --   --    --    --      --
----          --     --    ----    --   --    --    ----    --
----          ---------    -- --   --   --    --    -- --   -- 
---------     ---------    --  --  --   --    --    --  --  -- 
     ----     --     --    --   -- --   --    --    --   -- -- 
     ----     --     --    --    ----   --    --    --    ----
---------     --     --    --      --   --    --    --      -- 
                                        --
                                  --    --
                                    ----
                                                                                     
Acoustic!!!                                                                           
------------------|------------------|------------------|------------------|
------------------|------------------|------------------|------------------|
------------------|------------------|------------------|------------------|
------------------|------------------|------------------|------------------|
------------------|------------------|------------------|------------------|
------------------|------------------|------------------|------------------|


                                                              
--5--5-5-5--5-5-5--5-5-5--5-5-|------------------------------|
--5--5-5-5--5-5-5--5-5-5--5-5-|--6--6-6-6--6-6-6--6-6-6--6-6-|
--6--6-6-6--6-6-6--6-6-6--6-6-|--7--7-7-7--7-7-7--7-7-7--7-7-|
--7--7-7-7--7-7-7--7-7-7--7-7-|--7--7-7-7--7-7-7--7-7-7--7-7-|
--7--7-7-7--7-7-7--7-7-7--7-7-|------------------------------|
--5--5-5-5--5-5-5--5-5-5--5-5-|--5--5-5-5--5-5-5--5-5-5--5-5-|


                                                              
--5--5-5-5--5-5---------------|------------------------------|
--5--5-5-5--5-5-2--2-2-2--2-2-|--3--3-3-3--3-3-3--3-3-3--3-3-|
--6--6-6-6--6-6-2--2-2-2--2-2-|--2--2-2-2--2-2-2--2-2-2--2-2-|
--7--7-7-7--7-7-2--2-2-2--2-2-|--0--0-0-0--0-0-0--0-0-0--0-0-|
--7--7-7-7--7-7---------------|------------------------------|
--5--5-5-5--5-5-3--3-3-3--3-3-|--1--1-1-1--1-1-3--3-3-3--3-3-|


                                                              
--5--5-5-5--5-5-5--5-5-5--5-5-|------------------------------|
--5--5-5-5--5-5-5--5-5-5--5-5-|--6--6-6-6--6-6-6--6-6-6--6-6-|
--6--6-6-6--6-6-6--6-6-6--6-6-|--7--7-7-7--7-7-7--7-7-7--7-7-|
--7--7-7-7--7-7-7--7-7-7--7-7-|--7--7-7-7--7-7-7--7-7-7--7-7-|
--7--7-7-7--7-7-7--7-7-7--7-7-|------------------------------|
--5--5-5-5--5-5-5--5-5-5--5-5-|--5--5-5-5--5-5-5--5-5-5--5-5-|


                                                              
--5--5-5-5--5-5---------------|------------------------------|
--5--5-5-5--5-5-2--2-2-2--2-2-|--3--3-3-3--3-3-3--3-3-3--3-3-|
--6--6-6-6--6-6-2--2-2-2--2-2-|--2--2-2-2--2-2-2--2-2-2--2-2-|
--7--7-7-7--7-7-2--2-2-2--2-2-|--0--0-0-0--0-0-0--0-0-0--0-0-|
--7--7-7-7--7-7---------------|------------------------------|
--5--5-5-5--5-5-3--3-3-3--3-3-|--1--1-1-1--1-1-3--3-3-3--3-3-|


                                                              
----------------5--5-5-4--4-4-|--2--2-2-2--2-2-5--5-5-4--4-4-|
--5--5-5-5--5-5-5--5-5-4--4-4-|--2--2-2-2--2-2-5--5-5-4--4-4-|
--6--6-6-6--6-6-6--6-6-4--4-4-|--2--2-2-2--2-2-6--6-6-4--4-4-|
--6--6-6-6--6-6-7--7-7-6--6-6-|--4--4-4-4--4-4-7--7-7-6--6-6-|
--4--4-4-4--4-4-7--7-7-6--6-6-|--4--4-4-4--4-4-7--7-7-6--6-6-|
----------------5--5-5-4--4-4-|--2--2-2-2--2-2-5--5-5-4--4-4-|


                                                              
--2--2-2-2--2-2-2--2-2-2--2-2-|--0--0-0-0--0-0-0--0-0-0--0-0-|
--3--3-3-3--3-3-3--3-3-3--3-3-|--0--0-0-0--0-0-0--0-0-0--0-0-|
--4--4-4-4--4-4-4--4-4-4--4-4-|--1--1-1-1--1-1-1--1-1-1--1-1-|
--4--4-4-4--4-4-4--4-4-4--4-4-|--2--2-2-2--2-2-2--2-2-2--2-2-|
--2--2-2-2--2-2-0--0-0-0--0-0-|--2--2-2-2--2-2-2--2-2-2--2-2-|
------------------------------|--4--4-4-4--4-4-0--0-0-0--0-0-|


                                                              
--3--3-3-3--3-3-3--3-3-3--3-3-|------------------------------|
--3--3-3-3--3-3-3--3-3-3--3-3-|--7--7-7-7--7-7-7--7-7-7--7-7-|
--4--4-4-4--4-4-4--4-4-4--4-4-|--7--7-7-7--7-7-7--7-7-7--7-7-|
--5--5-5-5--5-5-5--5-5-5--5-5-|--7--7-7-7--7-7-7--7-7-7--7-7-|
--5--5-5-5--5-5-5--5-5-5--5-5-|--5--5-5-5--5-5-5--5-5-5--5-5-|
--3--3-3-3--3-3-3--3-3-3--3-3-|------------------------------|


                                                              
--3--3-3-3--3-3-3--3-3-3--3-3-|------------------------------|
--3--3-3-3--3-3-3--3-3-3--3-3-|--7--7-7-7--7-7-7--7-7-7--7-7-|
--4--4-4-4--4-4-4--4-4-4--4-4-|--7--7-7-7--7-7-7--7-7-7--7-7-|
--5--5-5-5--5-5-5--5-5-5--5-5-|--7--7-7-7--7-7-7--7-7-7--7-7-|
--5--5-5-5--5-5-5--5-5-5--5-5-|--5--5-5-5--5-5-5--5-5-5--5-5-|
--3--3-3-3--3-3-3--3-3-3--3-3-|------------------------------|


                                                              
------------------------------|--3--3-3-3--3-3-3--3-3-3--3-3-|
--3--3-3-3--3-3-3--3-3-3--3-3-|--3--3-3-3--3-3-3--3-3-3--3-3-|
--2--2-2-2--2-2-2--2-2-2--2-2-|--4--4-4-4--4-4-4--4-4-4--4-4-|
--0--0-0-0--0-0-0--0-0-0--0-0-|--5--5-5-5--5-5-5--5-5-5--5-5-|
------------------------------|--5--5-5-5--5-5-5--5-5-5--5-5-|
--2--2-2-2--2-2-2--2-2-2--2-2-|--3--3-3-3--3-3-3--3-3-3--3-3-|


                                                                      
------------------------------------|----------------------8---------|
--8--8-8-8--8-8-8---8--8--8---8--8--|--8---8--8--8---8--8--8---------|
--9--9-9-9--9-9-9---9--9--9---9--9--|--9---9--9--9---9--9--8---------|
--9--9-9-9--9-9-9---9--9--9---9--9--|--10--10-10-10--10-10-10--------|
--7--7-7-7--7-7---------------------|--10--10-10-10--10-10-10--------|
----------------10--10-10-10--10-10-|--8---8--8--8---8--8--8---------|


                                                         
------------------|------------------|------------------|
------------------|------------------|------------------|
------------------|------------------|------------------|
------------------|------------------|------------------|
------------------|------------------|------------------|
------------------|------------------|------------------|


                                                               
-----------------------------|--------------------------------|
-----8-----------------------|---------10------11--10---------|
--------8------------10------|-----10------10----------10-----|
--8--------8-----12------12--|--------------------------------|
--------------8--------------|--8--------------------------8--|
-----------------------------|--------------------------------|


                                                               
-----------------------------|--------------------------------|
-----8-----------------------|---------10------11--10---------|
--------8------------10------|-----10------10----------10-----|
--8--------8-----12------12--|--------------------------------|
--------------8--------------|--8--------------------------8--|
-----------------------------|--------------------------------|


                                                            
-----------------------------|-----------------------8-----|
---------8--11---------------|--------------------------8--|
------8---------10-------10--|--8-----10---------10--------|
--10----------------8--------|-----8---------10------------|
-----------------------------|------------8----------------|
-----------------------------|-----------------------------|


                                                                               
---------------------6------|------------------|--3--3-3-3--3-3-3--3-3-3--3-3-|
----------------------------|------------------|--3--3-3-3--3-3-3--3-3-3--3-3-|
--------8--------10-----10--|------------------|--3--3-3-3--3-3-3--3-3-3--3-3-|
-----6--------8---------10--|------------------|--5--5-5-5--5-5-5--5-5-5--5-5-|
--4--------6------------8---|------------------|--5--5-5-5--5-5-5--5-5-5--5-5-|
----------------------------|------------------|--3--3-3-3--3-3-3--3-3-3--3-3-|


                                                              
------------------------------|--3--3-3-3--3-3---------------|
--4--4-4-4--4-4-4--4-4-4--4-4-|--3--3-3-3--3-3-3--3-3-3--3-3-|
--5--5-5-5--5-5-5--5-5-5--5-5-|--3--3-3-3--3-3-0--0-0-0--0-0-|
--5--5-5-5--5-5-5--5-5-5--5-5-|--5--5-5-5--5-5-0--0-0-0--0-0-|
------------------------------|--5--5-5-5--5-5---------------|
--3--3-3-3--3-3-3--3-3-3--3-3-|--3--3-3-3--3-3-1--1-1-1--1-1-|


                                                              
------------------------------|--3--3-3-3--3-3-3--3-3-3--3-3-|
--4--4-4-4--4-4-4--4-4-4--4-4-|--3--3-3-3--3-3-3--3-3-3--3-3-|
--3--3-3-3--3-3-3--3-3-3--3-3-|--3--3-3-3--3-3-3--3-3-3--3-3-|
--1--1-1-1--1-1-1--1-1-1--1-1-|--5--5-5-5--5-5-5--5-5-5--5-5-|
------------------------------|--5--5-5-5--5-5-5--5-5-5--5-5-|
------------------------------|--3--3-3-3--3-3-3--3-3-3--3-3-|


                                                              
------------------------------|--3--3-3-3--3-3---------------|
--4--4-4-4--4-4-4--4-4-4--4-4-|--3--3-3-3--3-3-3--3-3-3--3-3-|
--5--5-5-5--5-5-5--5-5-5--5-5-|--3--3-3-3--3-3-0--0-0-0--0-0-|
--5--5-5-5--5-5-5--5-5-5--5-5-|--5--5-5-5--5-5-0--0-0-0--0-0-|
------------------------------|--5--5-5-5--5-5---------------|
--3--3-3-3--3-3-3--3-3-3--3-3-|--3--3-3-3--3-3-1--1-1-1--1-1-|


                                                              
------------------------------|--3--3-3-3--3-3-3--3-3-3--3-3-|
--4--4-4-4--4-4-4--4-4-4--4-4-|--3--3-3-3--3-3-3--3-3-3--3-3-|
--3--3-3-3--3-3-3--3-3-3--3-3-|--3--3-3-3--3-3-3--3-3-3--3-3-|
--1--1-1-1--1-1-1--1-1-1--1-1-|--5--5-5-5--5-5-5--5-5-5--5-5-|
------------------------------|--5--5-5-5--5-5-5--5-5-5--5-5-|
------------------------------|--3--3-3-3--3-3-3--3-3-3--3-3-|


                                                      
--------------------2---|----------------------------|
--6--6-5---5------5-3---|--1----1--1-1-1--1-1-1--1-1-|
--5--5-5---5------5-4---|--2----2--2-2-2--2-2-2--2-2-|
--5--5-5---5------5-4---|--2----2--2-2-2--2-2-2--2-2-|
--3--3-3---3------3-2---|--0----0--0-0---------------|
------------------------|--------------3--3-3-3--3-3-|


                                                             
------------------------------|--3--3-3--3-3-----3---5h3----|
--1--1-1-1--1-1-1--1-1-1--1-1-|--3--3-3--3-3---3---3-----3--|
--2--2-2-2--2-2-2--2-2-2--2-2-|--4--4-4--4-4----------------|
--0--0-0-0--0-0-0--0-0-0--0-0-|--5--5-5--5-5----------------|
------------------------------|--5--5-5--5-5----------------|
--2--2-2-2--2-2-2--2-2-2--2-2-|--3--3-3--3-3----------------|


                                                                             
--3---3---3-----3---5h3----|--3---3---3-----3---5h3----|--3~-----------2----|
--2---2---2---2---2-----2--|--5---5---5----------------|--3~-----------2----|
--2---2---2----------------|--5---5---5---5---5-----5--|--4~-----------2----|
--2---2---2----------------|--5---5---5----------------|--5~-----------4----|
--0---0---0----------------|--3---3---3----------------|--5~-----------4----|
---------------------------|---------------------------|--3~-----------2----|


                                                                  
--0----0--0-0-8---8--8--2--2-2-|---------------------------------|
--0----0--0-0-8---8--8--3--3-3-|--1--1-1-1--1-1-10--10-10-8--8-8-|
--0----0--0-0-9---9--9--4--4-4-|--2--2-2-2--2-2-10--10-10-9--9-9-|
--2----2--2-2-10--10-10-4--4-4-|--2--2-2-2--2-2-10--10-10-9--9-9-|
--2----2--2-2-10--10-10-2--2-2-|--0--0-0-0--0-0-8---8--8--7--7-7-|
--0----0--0-0-8---8--8---------|---------------------------------|


                                                              
------------------------------|------------------------------|
--6--6-6-6--6-6-6--6-6-6--6-6-|--3--3-3-3--3-3-3--3-3-3--3-3-|
--7--7-7-7--7-7-7--7-7-7--7-7-|--0--0-0-0--0-0-0--0-0-0--0-0-|
--5--5-5-5--5-5-7--7-7-7--7-7-|--0--0-0-0--0-0-0--0-0-0--0-0-|
--5--5-5-5--5-5---------------|--2--2-2-2--2-2---------------|
----------------8--8-8-8--8-8-|----------------3--3-3-3--3-3-|


                                                              
------------------------------|--1--1-1-1--1-1-1--1-1-1--1-1-|
------------------------------|--1--1-1-1--1-1-1--1-1-1--1-1-|
--3--3-3-3--3-3-3--3-3-3--3-3-|--2--2-2-2--2-2-2--2-2-2--2-2-|
--3--3-3-3--3-3-3--3-3-3--3-3-|--3--3-3-3--3-3-3--3-3-3--3-3-|
--1--1-1-1--1-1-1--1-1-1--1-1-|--3--3-3-3--3-3-3--3-3-3--3-3-|
------------------------------|--1--1-1-1--1-1-1--1-1-1--1-1-|


                                                              
------------------------------|--1--1-1-1--1-1-1--1-1-1--1-1-|
------------------------------|--1--1-1-1--1-1-1--1-1-1--1-1-|
--3--3-3-3--3-3-3--3-3-3--3-3-|--2--2-2-2--2-2-2--2-2-2--2-2-|
--3--3-3-3--3-3-3--3-3-3--3-3-|--3--3-3-3--3-3-3--3-3-3--3-3-|
--1--1-1-1--1-1-1--1-1-1--1-1-|--3--3-3-3--3-3-3--3-3-3--3-3-|
------------------------------|--1--1-1-1--1-1-1--1-1-1--1-1-|


                                                             
------------------------------|-----------------------------|
--1--1-1-1--1-1-1--1-1-1--1-1-|--4--4-4-4--3----3-3-3-1-1-1-|
--2--2-2-2--2-2-2--2-2-2--2-2-|--3--3-3-3--3----3-3-3-2-2-2-|
--2--2-2-2--2-2-2--2-2-2--2-2-|--3--3-3-3--3----3-3-3-2-2-2-|
--0--0-0-0--0-0-0--0-0-0--0-0-|--1--1-1-1--1----1-1-1-0-0-0-|
------------------------------|-----------------------------|


                                                                
--3----3--------------|------------6~-------|------------------|
--3----3----3----3----|--8----8----7~-------|------------------|
--3----3----3----3----|--8----8----8~-------|------------------|
--5----5----3----3----|--8----8----8~-------|------------------|
--5----5--------------|--6----6----6~-------|------------------|
--3----3----1----1----|---------------------|------------------|


                                                                            
------------------|------------------|------------------|------------------|
------------------|------------------|------------------|------------------|
------------------|------------------|------------------|------------------|
------------------|------------------|------------------|------------------|
------------------|------------------|------------------|------------------|
------------------|------------------|------------------|------------------|


                                       
------------------|------------------||
------------------|------------------||
------------------|------------------||
------------------|------------------||
------------------|------------------||
------------------|------------------||

ThAt'S iT!!! RaTe Me!!!!!!
            
Submit corrections


        Anna Lee lessons Hard to play? Try these video lessons and learn fast Anna Lee lessons
        
↑ Back to top | Tablatures and chords for acoustic guitar and electric guitar, ukulele, drums are parodies/interpretations of the original songs. You may use it for private study, scholarship, research or language learning purposes only