Home » D » Doors »

Doors - Break On Through Tabs

Artists:  A B C D E F G H I J K L M N O P Q R S T U V W X Y Z # 

Break On Through Tabs

(ver. 2) Click to play this song!
Doors
 Rating:
4/5 (15 votes)
                THE ORGAN SOLO
						TO
                                             "BREAK ON THROUGH"
                                    words and music by The Doors


The guitarist in my old band worked this out with me one jam session
when we were trying to cover it.  It is one of the easier solos of Ray
Manzarek to transfer to guitar because it is played on the regular
organ.  Just add a bit of reverberation and chorus.  It also sounds ok
on acoustic guitars.

--0--0--0-0--0-0--0--0-0--0-3-3--3-3--0-3-0--            REPEAT THIS ONCE
--0--0--0-0--0-0--0--0-0--0-3-3--3-3--0-3-0--
----------------------------------------------------
----------------------------------------------------
----------------------------------------------------
----------------------------------------------------

--0-0-0--7-7-7-5-----        REPEAT THREE TIMES
---------------------7-
------------------------
------------------------
------------------------
------------------------

--12b13--12b13--12b13--12b13--10h12--        REPEAT THREE TIMES
-----------------------------------------------
-----------------------------------------------
-----------------------------------------------
-----------------------------------------------
-----------------------------------------------

--12-12--10-10--12-12-12--10-10--        REPEAT THREE TIMES
----------------------------------------
----------------------------------------
----------------------------------------
----------------------------------------
----------------------------------------

Then you fall back into the verse tab:

------------------------------
------------------------------
------------------------------
---------2-0----2-2----0----
--------------2------2----2--
--7s0------------------------

Have fun.

The Joker
            
Submit corrections

↑ Back to top | Tablatures and chords for acoustic guitar and electric guitar, ukulele, drums are parodies/interpretations of the original songs. You may use it for private study, scholarship, research or language learning purposes only