Home » D » Doors »

Doors - Break On Through Bass

Artists:  A B C D E F G H I J K L M N O P Q R S T U V W X Y Z # 

Break On Through Bass

(ver. 2) Click to play this song!
Doors
 Rating:
4/5 (4 votes)
                This is probably as close as it's going to get, I tried the other tabs but they couldn't 
the mustard.

You can use either one of these riffs, either way it still sounds the same

This one is the easiest because you hardly have to move your hand
G|--------4----------2----------4---4---------2------|
D|---2---------0----------2--------------0-----------|
A|---------------------------------------------------|
E|---------------------------------------------------|

This is harder but if you do it this way then you can get to the pre-chorus and chorus
back and forth faster
G|---------------------------------------------------|
D|--------9----------7----------9---9---------7------|
A|---7---------5----------7--------------5-----------|
E|---------------------------------------------------|

Pre-chorus:
G|---------------------------------------------------|
D|---------------------------------------------------|
A|----5--0--5----5--0--5-----------------------------|
E|---------------------------------------------------|

Chorus:
G|-------------7---9---------------------------------|
D|--------9------------------------------------------|
A|---7-----------------------------------------------|
E|---------------------------------------------------|
            
Submit corrections

↑ Back to top | Tablatures and chords for acoustic guitar and electric guitar, ukulele, drums are parodies/interpretations of the original songs. You may use it for private study, scholarship, research or language learning purposes only