Home » D » Divine Heresy »

Divine Heresy - Failed Creation Tabs

Artists:  A B C D E F G H I J K L M N O P Q R S T U V W X Y Z # 

Failed Creation Tabs

(ver. 2) Click to play this song!
Divine Heresy
 Rating:
1.9/5 (13 votes)
                (Intro)
-------------------------------------------------------------------------------
                             SONG NAME - Band Name
-------------------------------------------------------------------------------

Tuning: drop c 

e|---------------------------------------------------------------------------|
B|---------------------------------------------------------------------------|
G|----------------------------------whole-thingx2----------------------------|
D|---------------------------------------------------------------------------|
A|----------------------00-00-00-00------------------------------------------|
E|-00-0-00-0-00-0-00-0--00-00-00-00------------------------------------------|
   **   **   **   **    ** ** ** **
e|---------------------------------------------------------------------------|
B|---------------------------------------------------------------------------|
G|---------------------------------------------------------------------------|
D|---------------------------------------------------------------------------|
A|----------------------00-00-0000100----------------------------------------|
E|-00-0-00-0-00-0-00-0--00-00-0000100----------------------------------------|
   **   **   **   **    ** ** ******* listen for rhythm


This is an kick ass song, and also my first tab.

| /  slide up
| \  slide down
| h  hammer-on
| p  pull-off
| ~  vibrato
| +  harmonic
| x  Mute note
===============================================================================
            
Submit corrections

↑ Back to top | Tablatures and chords for acoustic guitar and electric guitar, ukulele, drums are parodies/interpretations of the original songs. You may use it for private study, scholarship, research or language learning purposes only