Home » D » Divine Heresy »

Divine Heresy - Bleed The Fifth Tabs

Artists:  A B C D E F G H I J K L M N O P Q R S T U V W X Y Z # 

Bleed The Fifth Tabs

(ver. 2) Click to play this song!
Divine Heresy
 Rating:
4.4/5 (7 votes)
                
7 or 6 string tab

Tunings; 7-string: A D G C F A D  6-string: D G C F A D



Intro
D|---------------------------------------------------------------|
A|---------------------------------------------------------------|
F|--------5\4/7--------8\7/10------------------------------------|
C|-----------------------------------------------------8888------|
G|--------3\2/5--------6\5/8--------8888111111118887777----7777--|
D|--2100---------2100---------0000-------------------------------|
A|---------------------------------------------------------------|
pm  ....         ....         ....               

D|---------------------------------------------------------------|
A|---------------------------------------------------------------|
F|--------5\4/7--------8\7/10------------------------------------|
C|-----------------------------------------------------88888888--|
G|--------3\2/5--------6\5/8--------8888111111118887777----------|
D|--2100---------2100---------0000-------------------------------|
A|---------------------------------------------------------------|(x2)
pm  ....         ....         ....   

Verse 1
D|----------------------------------------------|
A|----------------------------------------------|
F|----------------------------------------------|
C|-------------5---5---7-------------10--10--7--|
G|-------------3---2---5-------------8---7---5--|
D|--0232--0235---0---0----0232--0235---0---0----|
A|----------------------------------------------|
pm  ....  ....   .   .    ....  ....   .   .              

D|-----------------------------------------------|
A|-----------------------------------------------|
F|-----------------------------------------------|
C|-------------5---5---7-------------10--10--12--|
G|-------------3---2---5-------------8---7---10--|
D|--0232--0235---0---0----0232--0235---0---0-----|
A|-----------------------------------------------|
pm  ....  ....   .   .    ....  ....   .   .    

D|----------------------------------------------|
A|----------------------------------------------|
F|----------------------------------------------|
C|-------------5---5---7-------------10--10--7--|
G|-------------3---2---5-------------8---7---5--|
D|--0232--0235---0---0----0232--0235---0---0----|
A|----------------------------------------------|
pm  ....  ....   .   .    ....  ....   .   .   
D|----------------------------------------------|
A|----------------------------------------------|
F|----------------------------------------------|
C|-------------5---5---7------------------------|
G|-------------3---2---5--------------8--7--5---|
D|--0232--0235---0---0----0232--0235--6--5--3---|
A|----------------------------------------------|
pm  ....  ....   .   .    ....  ....      

Chorus
D|--------------------------------------------------------|
A|--------------------------------------------------------|
F|--------------------------------------------------------|
C|----------------------------------------------8888------|
G|--------------------------88881111111188887777----7777--|
D|--0000----0000----0000----------------------------------|
A|--------------------------------------------------------|
pm  ....    ....    ....              

D|--------------------------------------------------------|
A|--------------------------------------------------------|
F|--------------------------------------------------------|
C|----------------------------------------------88888888--|
G|--------------------------88881111111188887777----------|
D|--0000----0000----0000----------------------------------|
A|--------------------------------------------------------|(x2)
pm  ....    ....    ....  

D|---------------------------------------------------------------|
A|---------------------------------------------------------------|
F|--------5\4/7--------8\7/10------------------------------------|
C|-----------------------------------------------------8888------|
G|--------3\2/5--------6\5/8--------8888111111118887777----7777--|
D|--2100---------2100---------0000-------------------------------|
A|---------------------------------------------------------------|
pm  ....         ....         ....               

D|---------------------------------------------------------------|
A|---------------------------------------------------------------|
F|--------5\4/7--------8\7/10------------------------------------|
C|-----------------------------------------------------88888888--|
G|--------3\2/5--------6\5/8--------8888111111118887777----------|
D|--2100---------2100---------0000-------------------------------|
A|---------------------------------------------------------------|
pm  ....         ....         ....   

Verse 2
D|----------------------------------------------|
A|----------------------------------------------|
F|----------------------------------------------|
C|-------------5---5---7-------------10--10--7--|
G|-------------3---2---5-------------8---7---5--|
D|--0232--0235---0---0----0232--0235---0---0----|
A|----------------------------------------------|
pm  ....  ....   .   .    ....  ....   .   .              

D|-----------------------------------------------|
A|-----------------------------------------------|
F|-----------------------------------------------|
C|-------------5---5---7-------------10--10--12--|
G|-------------3---2---5-------------8---7---10--|
D|--0232--0235---0---0----0232--0235---0---0-----|
A|-----------------------------------------------|
pm  ....  ....   .   .    ....  ....   .   .    

D|----------------------------------------------|
A|----------------------------------------------|
F|----------------------------------------------|
C|-------------5---5---7-------------10--10--7--|
G|-------------3---2---5-------------8---7---5--|
D|--0232--0235---0---0----0232--0235---0---0----|
A|----------------------------------------------|
pm  ....  ....   .   .    ....  ....   .   .   
D|----------------------------------------------|
A|----------------------------------------------|
F|----------------------------------------------|
C|-------------5---5---7------------------------|
G|-------------3---2---5--------------8--7--5---|
D|--0232--0235---0---0----0232--0235--6--5--3---|
A|----------------------------------------------|
pm  ....  ....   .   .    ....  ....    

Chorus 2
D|--------------------------------------------------------|
A|--------------------------------------------------------|
F|--------------------------------------------------------|
C|----------------------------------------------8888------|
G|--------------------------88881111111188887777----7777--|
D|--0000----0000----0000----------------------------------|
A|--------------------------------------------------------|
pm  ....    ....    ....  

D|--------------------------------------------------------|
A|--------------------------------------------------------|
F|--------------------------------------------------------|
C|----------------------------------------------88888888--|
G|--------------------------88881111111188887777----------|
D|--0000----0000----0000----------------------------------|
A|--------------------------------------------------------|(x2)
pm  ....    ....    ....  

Middle Part / Rhytmn under solo
D|--------------------------------------------------------|
A|--------------------------------------------------------|
F|--------------------------------------------------------|
C|---------------------------777766666666---777766666666--|
G|--------------------------------------------------------|
D|--5555888877775555444444444-------------4---------------|
A|--------------------------------------------------------|
pm                          .             .    

D|--------------------------------------------------------|
A|--------------------------------------------------------|
F|----------------------------------------------44444444--|
C|---------------------------777766666666---7777----------|
G|--------------------------------------------------------|
D|--5555888877775555444444444-------------4---------------|
A|--------------------------------------------------------|(x4)
pm                          .             .  

D|--------------------------------|
A|--------------------------------|
F|--------------------------------|
C|--------------------------------|
G|--------------------------------|
D|--0000----0000----0000----------|
A|--------------------------------|
pm  ....    ....    .... 

D|--------------------------------|
A|--------------------------------|
F|--------------------------------|
C|--------------------------------|
G|--------------------------------|
D|--0000----0000----0000----------|
A|-----------------------\-/16~~~~|
pm  ....    ....    .... 

Chorus 3
D|--------------------------------------------------------|
A|--------------------------------------------------------|
F|--------------------------------------------------------|
C|----------------------------------------------8888------|
G|--------------------------88881111111188887777----7777--|
D|--0000----0000----0000----------------------------------|
A|--------------------------------------------------------|
pm  ....    ....    .... 

D|--------------------------------------------------------|
A|--------------------------------------------------------|
F|--------------------------------------------------------|
C|----------------------------------------------88888888--|
G|--------------------------88881111111188887777----------|
D|--0000----0000----0000----------------------------------|
A|--------------------------------------------------------|(x2)
pm  ....    ....    .... 

End Riff
D|---------------------------------------------------------|
A|---------------------------------------------------------|
F|---------------------------------------------------------|
C|---------------------------------------------------------|
G|---------------------------------------------------------|
D|---------------------------------------------------------|
A|--6-6-6-6-6-6-6-6-8-6-7-6-7--6-6-6-6-6-6-6-6-8-6-7-6-10--|(repeat)
pm  . . . . . . . .   .   .    . . . . . . . .   .   .                        

** OR **

play the end riff like this and you could play this whole song on a 
6-string guitar, just ignore the low A on the rest of this tab.

D|--------------------------------------------------------|
A|--------------------------------------------------------|
F|--------------------------------------------------------|
C|--------------------------------------------------------|
G|--------------------------------------------------------|
D|--1-1-1-1-1-1-1-1-3-1-2-1-2--1-1-1-1-1-1-1-1-3-1-2-1-5--|
pm  . . . . . . . .   .   .    . . . . . . . .   .   . 

ENJOY
            
Submit corrections

↑ Back to top | Tablatures and chords for acoustic guitar and electric guitar, ukulele, drums are parodies/interpretations of the original songs. You may use it for private study, scholarship, research or language learning purposes only