Home » D » Divine Heresy »

Divine Heresy - Failed Creation Tabs

Artists:  A B C D E F G H I J K L M N O P Q R S T U V W X Y Z # 

Failed Creation Tabs

(ver. 1) Click to play this song!
Divine Heresy
 Rating:
2.7/5 (12 votes)
                Failed Creation by Divine Heresy

This is the correct version in standard tuning



===========================================
0:00-0:18
1|----------------------------------------|
2|----------------------------------------|
3|----------------------------------------|
4|----------------------------------------|
5|----------------------------------------|
6|--------------------112--112--112--112--|

1|----------------------------------------|
2|----------------------------------------|
3|----------------------------------------|
4|----------------------------------------|
5|--33--33--33--33------------------------|
6|--11--11--11--11----112--112--112--112--|

1|----------------------------------------|
2|----------------------------------------|
3|----------------------------------------|
4|----------------------------------------|
5|--33--33--33--33------------------------|
6|--11--11--11--11----112--112--112--112--|

1|--------------------|
2|--------------------|
3|--------------------|
4|--------------------|
5|--33--33-3-3-3-3-3-3|
6|--11--11-1-1-1-1-1-1|

1|----------------------------------------|
2|----------------------------------------|
3|----------------------------------------|
4|----------------------------------------|
5|----------------------------------------|
6|112--112--112--112--112--112--112--112--|

===========================================
0:18-0:22

1|----------------------------------------|
2|----------------------------------------|
3|----------------------------------------|
4|------------------------------99999999--|
5|------101010109999777799997777----------|
6|--7777----------------------------------|


1|----------------------------------------|
2|----------------------------------------|
3|----------------------------------------|
4|------------------------------88888888--|
5|------101010109999777799997777----------|
6|--6666----------------------------------|

===========================================
0:22-0:39

1|----------------------------------------|
2|----------------------------------------|
3|----------------------------------------|
4|----------------------------------------|
5|----------------------------------------|
6|3333333----1010101010109995557777777----|

1|--------------------|
2|--------------------|
3|--------------------|
4|--------------------|
5|-----999910101010---|
6|777777--------------|

1|----------------------------------------|
2|----------------------------------------|
3|----------------------------------------|
4|----------------------------------------|
5|----------------------------------------|
6|3333333----1010101010109995557777777----|


1|--------------------|
2|--------------------|
3|--------------------|
4|--------------------|
5|--------------------|
6|55555555--22222222--|

1|----------------------------------------|
2|----------------------------------------|
3|----------------------------------------|
4|----------------------------------------|
5|----------------------------------------|
6|3333333----1010101010109995557777777----|

1|--------------------|
2|--------------------|
3|--------------------|
4|--------------------|
5|-----999910101010---|
6|777777--------------|

1|----------------------------------------|
2|----------------------------------------|
3|----------------------------------------|
4|----------------------------------------|
5|----------------------------------------|
6|3333333----1010101010109995557777777----|


1|--------------------|
2|--------------------|
3|--------------------|
4|--------------------|
5|--------------------|
6|5---------2---------|

===========================================
0:40-0:57

1|----------------------------------------|
2|----------------------------------------|
3|----------------------------------------|
4|----------------------------------------|
5|----------------------------------------|
6|--------------------112--112--112--112--|

1|----------------------------------------|
2|----------------------------------------|
3|----------------------------------------|
4|----------------------------------------|
5|--33--33--33--33------------------------|
6|--11--11--11--11----112--112--112--112--|

1|----------------------------------------|
2|----------------------------------------|
3|----------------------------------------|
4|----------------------------------------|
5|--33--33--33--33------------------------|
6|--11--11--11--11----112--112--112--112--|

1|--------------------|
2|--------------------|
3|--------------------|
4|--------------------|
5|--33--33-3-3-3-3-3-3|
6|--11--11-1-1-1-1-1-1|

1|----------------------------------------|
2|----------------------------------------|
3|----------------------------------------|
4|----------------------------------------|
5|----------------------------------------|
6|112--112--112--112--112--112--112--112--|

===========================================
0:57-1:00

1|----------------------------------------|
2|----------------------------------------|
3|----------------------------------------|
4|------------------------------99999999--|
5|------101010109999777799997777----------|
6|--7777----------------------------------|


1|----------------------------------------|
2|----------------------------------------|
3|----------------------------------------|
4|------------------------------88888888--|
5|------101010109999777799997777----------|
6|--6666----------------------------------|

===========================================
1:01-1:17

1|----------------------------------------|
2|----------------------------------------|
3|----------------------------------------|
4|----------------------------------------|
5|----------------------------------------|
6|3333333----1010101010109995557777777----|

1|--------------------|
2|--------------------|
3|--------------------|
4|--------------------|
5|-----999910101010---|
6|777777--------------|

1|----------------------------------------|
2|----------------------------------------|
3|----------------------------------------|
4|----------------------------------------|
5|----------------------------------------|
6|3333333----1010101010109995557777777----|


1|--------------------|
2|--------------------|
3|--------------------|
4|--------------------|
5|--------------------|
6|55555555--22222222--|

1|----------------------------------------|
2|----------------------------------------|
3|----------------------------------------|
4|----------------------------------------|
5|----------------------------------------|
6|3333333----1010101010109995557777777----|

1|--------------------|
2|--------------------|
3|--------------------|
4|--------------------|
5|-----999910101010---|
6|777777--------------|

1|----------------------------------------|
2|----------------------------------------|
3|----------------------------------------|
4|----------------------------------------|
5|----------------------------------------|
6|3333333----1010101010109995557777777----|

===========================================
1:18-1:38


1|----------------------------------------|
2|----------------------------------------|
3|----------7--6--2--4---4-44--4--6--7----|
4|5---5-55--7--6--2--4---4-44--4--6--7----|
5|5---5-55--5--4--0--2---2-22--2--4--5----|
6|3---3-33--------------------------------|


1|----------------------------------------|
2|----------------------------------------|
3|----------7--6--2--4---4-44--4--4--4----|
4|5---5-55--7--6--2--4---4-44--4--4--4----|
5|5---5-55--5--4--0--2---2-22--2--2--2----|
6|3---3-33--------------------------------|

1|----------------------------------------|
2|----------------------------------------|
3|----------7--6--2--4---4-44--4--6--7----|
4|5---5-55--7--6--2--4---4-44--4--6--7----|
5|5---5-55--5--4--0--2---2-22--2--4--5----|
6|3---3-33--------------------------------|


1|----------------------------------------|
2|----------------------------------------|
3|----------7--6--2--4---4-44--4--4--4----|
4|5---5-55--7--6--2--4---4-44--4--4--4----|
5|5---5-55--5--4--0--2---2-22--2--2--2----|
6|3---3-33--------------------------------|


1|--------------------|
2|--------------------|
3|--------------------|
4|--------------------|
5|13--12--5-5-5-4-4-4-|
6|--------3-3-3-2-2-2-|

===========================================
1:39-1:56

1|----------------------------------------|
2|----------------------------------------|
3|----------------------------------------|
4|-----------------------------4-3-2------|
5|-------------------3h4p3----------------|
6|0000000000000000---------6-5------------|

===========================================
1:56-2:13

1|----------------------------------------|
2|----------------------------------------|
3|----------------------------------------|
4|----------------------------------------|
5|--------------------1111444400003333----|
6|1111--1111--1111------------------------|

1|----------------------------------------|
2|----------------------------------------|
3|----------------------------------------|
4|----------------------------------------|
5|--------------------1111444400003333----|
6|1111--1111--1111------------------------|

1|----------------------------------------|
2|----------------------------------------|
3|----------------------------------------|
4|----------------------------------------|
5|--------------------1111444400003333----|
6|1111--1111--1111------------------------|

1|----------------------------------------|
2|----------------------------------------|
3|----------------------------------------|
4|----------------------------------------|
5|--------------------1111444422222222----|
6|1111--1111--1111------------------------|

===========================================
2:14-2:17

1|----------------------------------------|
2|----------------------------------------|
3|10----------------13--------------------|
4|10----------------13--------------------|
5|8-----------------11--------------------|
6|----------------------------------------|
            
Submit corrections

↑ Back to top | Tablatures and chords for acoustic guitar and electric guitar, ukulele, drums are parodies/interpretations of the original songs. You may use it for private study, scholarship, research or language learning purposes only