Home » D » Divine Heresy »

Divine Heresy - Failed Creation Bass

Artists:  A B C D E F G H I J K L M N O P Q R S T U V W X Y Z # 

Failed Creation Bass

(ver. 1) Click to play this song!
Divine Heresy
 Rating:
4.2/5 (5 votes)
                divine heresy - failed creation .
tuning:normal B

i know this song is in normal A generally,but they never use the low A at any part in 
song that ive herd . so ju mi´ght just aswell play it in B as tabbed here..


tip : this song is all in 3s so use a pick or three fingers for this . i prefer 3fingers 
.


1:-------------------------------:
2:-------------------------------:
3:-------------------------------:
4:-------------------------------:   x2
5:001-001-001-001-00--00--00--00-:

1:-------------------------------:
2:-------------------------------:
3:-------------------------------:  x1
4:-------------------------------:
5:001-001-001-001-00--00--000000-:
last six notes are a bit slower than written here .

1:-------------------------------:
2:-------------------------------:
3:-------------------------------:
4:-------------------------------:   x1
5:001-001-001-001-001-001-001-001:

open your f**king eyes.....
1:-----------------------------------------------:
2:-----------------777777------------------555555:
3:--888777555777555---------888777555777555------:
4:5-----------------------4----------------------:   x1
5:-----------------------------------------------:
chorus:
1:-------------------------------------------------------------------:
2:-------------------------------------------------------------------:
3:----------------------------222333---------------------------------:
4:--------333222---000000--000----------------333222---000000--555333:
5:222222--------333-------------------222222--------333--------------:

1:-------------------------------------------------------------------:
2:-------------------------------------------------------------------:
3:----------------------------222333---------------------------------:
4:--------333222---000000--000----------------333222---000000--5--3--:
5:222222--------333-------------------222222--------333--------------:


1:-------------------------------:
2:-------------------------------:
3:-------------------------------:
4:-------------------------------:   x2
5:001-001-001-001-00--00--00--00-:

1:-------------------------------:
2:-------------------------------:
3:-------------------------------:  x1
4:-------------------------------:
5:001-001-001-001-00--00--000000-:

1:-------------------------------:
2:-------------------------------:
3:-------------------------------:
4:-------------------------------:   x1
5:001-001-001-001-001-001-001-001:

open your f**king eyes.....
1:-----------------------------------------------:
2:-----------------777777------------------555555:
3:--888777555777555---------888777555777555------:
4:5-----------------------4----------------------:   x1
5:-----------------------------------------------:


chorus:
1:-------------------------------------------------------------------:
2:-------------------------------------------------------------------:
3:----------------------------222333---------------------------------:
4:--------333222---000000--000----------------333222---000000--555333:
5:222222--------333-------------------222222--------333--------------:

1:-------------------------------------------------------------------:
2:-------------------------------------------------------------------:
3:----------------------------222333---------------------------------:
4:--------333222---000000--000----------------333222---000000--5--3--:
5:222222--------333-------------------222222--------333--------------:

1:-------------------------------------------------------------------:
2:-------------------------------------------------------------------:
3:----------------------------2--3-----------------------------------:  x2
4:--------3--2-----0-0-00--0------------------3--2-----0-0-----------:
5:2-2-22--------3---------------------2-2-22--------3--------3-3-----:

1:-------------------------------:
2:-------------------------------:
3:3-----2------------------------:
4:------------3-3-3-2-2-2-0000000:   x1
5:-------------------------------:

thats all i Know for the moment  have fun!
            
Submit corrections

↑ Back to top | Tablatures and chords for acoustic guitar and electric guitar, ukulele, drums are parodies/interpretations of the original songs. You may use it for private study, scholarship, research or language learning purposes only