» » »

Dishwalla - Life For Sale Tabs

Artists:  A B C D E F G H I J K L M N O P Q R S T U V W X Y Z # 

Life For Sale Tabs

(ver. 2) Click to play this song!
Dishwalla
 Rating:
4/5 (4 votes)

 Life For Sale lessons Tabs too difficult? Try these video lessons and learn fast
 
                ----------------------------------------------------------------------------
                             LIFE FOR SALE - Dishwalla
----------------------------------------------------------------------------
I just figured this song out by ear, however I'm confident it's completely
accurate. Great song, try and use some fairly bright distortion with little
or no reverb. The first few chords are almost reminiscent of early Doors.
Great song...have fun.
Tuning: Standard 4/40

e|-----------------------------------------------------------------------------|
B|---1----1----1----0-----1----1----1----0-------------------------------------|
G|---2----2----2----0-----2----2----2----0-------------------------------------|
D|---2----2----2----0-----2----2----2----0-------------------------------------|
A|-----------------------------------------------------------------------------|
E|-----------------------------------------------------------------------------|


e|-----------------------------------------------------------------------------|
B|---1----1----1----0----1----1----1----0--------------------------------------|
G|---2----2----2----0----2----2----2----0--------------------------------------|
D|---2----2----2----0----2----2----2----0--------------------------------------|
A|-----------------------------------------------------------------------------|
E|-----------------------------------------------------------------------------|


e|-----------------------1-1-1-1-1-1-1-1---(0)(0)(0)(0)---3-3-3-3--------------|
B|---5-5-5-5-5-5-5-5-----1-1-1-1-1-1-1-1---(0)(0)(0)(0)---3-3-3-3--------------|
G|---5-5-5-5-5-5-5-5-----2-2-2-2-2-2-2-2---(0)(0)(0)(0)---4-4-4-4--------------|
D|---5-5-5-5-5-5-5-5-----3-3-3-3-3-3-3-3----2--2--2--2----5-5-5-5--------------|
A|---3-3-3-3-3-3-3-3-----3-3-3-3-3-3-3-3----2--2--2--2----5-5-5-5--------------|
E|-----------------------1-1-1-1-1-1-1-1----0--0--0--0----3-3-3-3--------------|


e|-----------------------------------------------------------------------------|
B|---1----1----1----0-----1----1----1----0-------------------------------------|
G|---2----2----2----0-----2----2----2----0-------------------------------------|
D|---2----2----2----0-----2----2----2----0-------------------------------------|
A|-----------------------------------------------------------------------------|
E|-----------------------------------------------------------------------------|


e|-----------------------------------------------------------------------------|
B|---1----1----1----0-----1----1----1----0-------------------------------------|
G|---2----2----2----0-----2----2----2----0-------------------------------------|
D|---2----2----2----0-----2----2----2----0-------------------------------------|
A|-----------------------------------------------------------------------------|
E|-----------------------------------------------------------------------------|


e|-----------------------1-1-1-1-1-1-1-1----------0-------------3--------------|
B|---5-5-5-5-5-5-5-5-----1-1-1-1-1-1-1-1----------0-------------3--------------|
G|---5-5-5-5-5-5-5-5-----2-2-2-2-2-2-2-2---------------------------------------|
D|---5-5-5-5-5-5-5-5-----3-3-3-3-3-3-3-3----2--2-------------------------------|
A|---3-3-3-3-3-3-3-3-----3-3-3-3-3-3-3-3----2--2-------------------------------|
E|-----------------------1-1-1-1-1-1-1-1----0--0----------3-3------------------|


e|-----------------------------1~----------------------------------------------|
B|---1~--------1----1~---------1~----------------------------------------------|
G|---2~--------2----0~---------2~----------------------------------------------|
D|---2~--------2----2~---------3~---------------------2-2-2-2---5-5-5-5-5-5----|
A|---0~--------0----3~---------3~-------------12\-----2-2-2-2---5-5-5-5-5-5----|
E|-----------------------------1~-------------12\-----0-0-0-0---3-3-3-3-3-3----|


e|---------------------------------------------|--------------1~-------3~----| -|
B|---1----1----1----0-----1----1----1----0-----|----1~---1~---1~-------3~----| -|
G|---2----2----2----0-----2----2----2----0-----|----2~---0~---2~-------0~----| -|
D|---2----2----2----0-----2----2----2----0-----|----2~---2~---3~---2~--0~----| -|
A|---------------------------------------------|----0~---3~---3~---2~--x~----| -|
E|---------------------------------------------|--------------1~---0~--3~-------|


e|-----------------------------------------------------------------------------|
B|---1----1----1----0-----1----1----1----0-------------------------------------|
G|---2----2----2----0-----2----2----2----0-------------------------------------|
D|---2----2----2----0-----2----2----2----0-------------------------------------|
A|-----------------------------------------------------------------------------|
E|-----------------------------------------------------------------------------|


e|-----------------------1-1-1-1-1-1-1-1----------0-------------3--------------|
B|---5-5-5-5-5-5-5-5-----1-1-1-1-1-1-1-1----------0-------------3--------------|
G|---5-5-5-5-5-5-5-5-----2-2-2-2-2-2-2-2---------------------------------------|
D|---5-5-5-5-5-5-5-5-----3-3-3-3-3-3-3-3----2--2-------------------------------|
A|---3-3-3-3-3-3-3-3-----3-3-3-3-3-3-3-3----2--2-------------------------------|
E|-----------------------1-1-1-1-1-1-1-1----0--0----------3-3------------------|


e|-----------------------------1~----------------------------------------------|
B|---1~--------1----1~---------1~----------------------------------------------|
G|---2~--------2----0~---------2~----------------------------------------------|
D|---2~--------2----2~---------3~---------------------2-2-2-2---5-5-5-5-5-5----|
A|---0~--------0----3~---------3~-------------12\-----2-2-2-2---5-5-5-5-5-5----|
E|-----------------------------1~-------------12\-----0-0-0-0---3-3-3-3-3-3----|


e|--(1)~------------------------------|--------------------------------------| -|
B|--(1)~------------------------------|--------------------------------------| -|
G|--(2)~------------------------------|--------------------------------------| -|
D|---3-~--------2-2-2-2-----5-5-5-5---|---3-3---3-3---3-3---3-3---3-3--------| -|
A|---3-~--------2-2-2-2-----5-5-5-5---|---3-3---3-3---3-3---3-3---3-3--------| -|
E|---1-~--------0-0-0-0-----3-3-3-3---|---1-1---1-1---1-1---1-1---1-1-----------|


e|-----------------------------------------------------------------------------|
B|-----------------------------------------------------------------------------|
G|---2-2-2-----------------------------------------------2~---4~---------------|
D|---2-2-2----------------3-3---3-3---3-3---3-3---X-X----2~---4~---------------|
A|---O-0-0----0-2-3-2-0---3-3---3-3---3-3---3-3---X-X----0~---2~--3-3-2-0------|
E|------------------------1-1---1-1---1-1---1-1---X-X--------------------------|


e|------------------------------------------------------------------------------|
B|------------------------------------------------------------------------------|
G|-------------------------------------2-2-2------------------------------------|
D|---3-3---3-3---3-3---3-3---3-3-------2-2-2------------------------------------|
A|---3-3---3-3---3-3---3-3---3-3-------0-0-0----0-2-3-2-0-----------------------|
E|---1-1---1-1---1-1---1-1---1-1------------------------------------------------|


e|---------------------------------------------------1~------------------------|
B|-----------------------------------------1~---1~---1~------------------------|
G|-----------------------------------------2~---0~---2~------------------------|
D|3-3---3-3---3-3---3-3---X-X----2~---5~---2~---2~---3~---2-2-2-2-5-5-5-5------|
A|3-3---3-3---3-3---3-3---X-X----2~---5~---0~---3~---3~---2-2-2-2-5-5-5-5------|
E|1-1---1-1---1-1---1-1---X-X----0~---3~-------------1~---0-0-0-0-3-3-3-3------|

e|-----------------------------------------------------------------------------|
B|---1----1----1----0-----1----1----1----0-------------------------------------|
G|---2----2----2----0-----2----2----2----0-------------------------------------|
D|---2----2----2----0-----2----2----2----0-------------------------------------|
A|-----------------------------------------------------------------------------|
E|-----------------------------------------------------------------------------|


e|-----------------------1-1-1-1-1-1-1-1----------0-------------3--------------|
B|---5-5-5-5-5-5-5-5-----1-1-1-1-1-1-1-1----------0-------------3--------------|
G|---5-5-5-5-5-5-5-5-----2-2-2-2-2-2-2-2---------------------------------------|
D|---5-5-5-5-5-5-5-5-----3-3-3-3-3-3-3-3----2--2-------------------------------|
A|---3-3-3-3-3-3-3-3-----3-3-3-3-3-3-3-3----2--2-------------------------------|
E|-----------------------1-1-1-1-1-1-1-1----0--0----------3-3------------------|


e|-----------------------------1~----------------------------------------------|
B|---1~--------1----1~---------1~----------------------------------------------|
G|---2~--------2----0~---------2~----------------------------------------------|
D|---2~--------2----2~---------3~---------------------2-2-2-2---5-5-5-5-5-5----|
A|---0~--------0----3~---------3~-------------12\-----2-2-2-2---5-5-5-5-5-5----|
E|-----------------------------1~-------------12\-----0-0-0-0---3-3-3-3-3-3----|

   Ascending key in A
  Then play following two full measures
e|-----------------------------------------------------------------------------|
B|-----------------------------------------------------------------------------|
G|---2222222222~-----555555555~------------------------------------------------|
D|---2222222222~-----555555555~-----333333333~----22222222~----5555555555~-----|
A|---0000000000~-----333333333~-----333333333~----22222222~----5555555555~-----|
E|----------------------------------111111111~----00000000~----3333333333~-----|


e|-----------------------------------------------------------------------------|
B|-----------------------------------------------------------------------------|
G|-----9-9---9-9---9-9---8-8---8-8------9-9---9-9---9-9/-----------------------|
D|-----7-7---7-7---7-7---7-7---7-7------7-7---7-7---7-7/-----------------------|
A|-----------------------6-6---6-6-----------------------0-2-3-2-0-------------|
E|-----------------------------------------------------------------------------|

e|-----------------------------------------------------------------------------|
B|-----------------------------------------------------------------------------|
G|-----9-9---9-9---9-9---8-8---8-8---------------------------------------------|
D|-----7-7---7-7---7-7---7-7---7-7---------------------------------------------|
A|-----------------------6-6---6-6---------------------------------------------|
E|-----------------------------------------------------------------------------|
Well...there ya have it. There are a few small guitar fills throughout the song
in the background, but they're simple to pick up. If you have any questions/comments
or would like any further tab, feel free to e-mail me Ciao.
| /  slide up
| \  slide down
| h  hammer-on
| p  pull-off
| ~  vibrato
| +  harmonic
| x  Mute note
===============================================================================
            
Submit corrections


        Life For Sale lessons Hard to play? Try these video lessons and learn fast Life For Sale lessons
        
↑ Back to top | Tablatures and chords for acoustic guitar and electric guitar, ukulele, drums are parodies/interpretations of the original songs. You may use it for private study, scholarship, research or language learning purposes only