» » »

Dishwalla - Home Tabs

Artists:  A B C D E F G H I J K L M N O P Q R S T U V W X Y Z # 

Home Tabs

(ver. 1) Click to play this song!
Dishwalla
 Rating:
4/5 (4 votes)

 Home lessons Tabs too difficult? Try these video lessons and learn fast
 
                I've put together quite an accurate tab for this song, if i can
say so myself, i hope you enjoy it and it helps.  This song is
truly beautiful.  If you wish to use this tab on a site or claim
credit for it, please inform me before hand.  Thanks!


INTRO/VERSE/CHORUS:
-------------------

e|-------------------------------------------------|
B|---------0-0-----0-0------------0-0-----0-0------|
G|---------0-0-----0-0------------0-0-----0-0------|
D|------0---------------0------0---------------0---|
A|---2----------2-----------3----------3-----------|
E|---3----------3----------------------------------|


PRE-CHORUS:
-----------

e|----0----0----|
B|----1----1----|
G|----2----0----|
D|----2----2----|
A|----0----3----|
E|--------------|


CHORUS:
-------

e|--------------|
B|----0----0----|
G|----0----0----|
D|----0----2----|
A|----2----3----|
E|----3---------|


CHORUS RIFF:
------------

e|------8-8--------------------8-8------------|
B|----------7--7-7h8-8---7h8-8-----7-7-7h8-8--|
G|--7-7---------------------------------------|
D|--------------------------------------------|
A|--------------------------------------------|
E|--------------------------------------------|


BRIDGE:
-------

e|--------------------------------------------|
B|--------------------------------------------|
G|---------7----4----7---------7----4----7----|
D|----7----7----5----7----7----7----5----7----|
A|----7----5----5----5----7----5----5----5----|
E|----5---------3---------5---------3---------|


OUTRO:
------

e|-----------15----15--------------15----15-----|
B|--13h12-12----12----12--12h13-13----13----13--|
G|----------------------------------------------| PLAY
D|----------------------------------------------|  x3
A|----------------------------------------------|
E|----------------------------------------------|

e|--------------------------------|
B|--10h12-10-12h13-10h12-10-------|
G|-----------------------------0--|
D|-----------------------------0--|
A|-----------------------------2--|
E|-----------------------------3--|



---------------------------------------------
---------------------------------------------
            
Submit corrections


        Home lessons Hard to play? Try these video lessons and learn fast Home lessons
        
↑ Back to top | Tablatures and chords for acoustic guitar and electric guitar, ukulele, drums are parodies/interpretations of the original songs. You may use it for private study, scholarship, research or language learning purposes only