» » »

Dishwalla - Angels Or Devils Bass

Artists:  A B C D E F G H I J K L M N O P Q R S T U V W X Y Z # 

Angels Or Devils Bass

(ver. 1) Click to play this song!
Dishwalla
 Rating:
4/5 (4 votes)

 Angels Or Devils lessons Tabs too difficult? Try these video lessons and learn fast
 
                
Standard tuning

Riff 1
G|--------------------------------------|
D|--------------------------------------|
A|-22222222-----------------------------|
E|----------22222222-44444444-00000000--|

Riff 2
G|--------------------------------------|
D|--------------------------------------|
A|-22222222-----------------46----------|
E|----------22222222-4444444--00000000--|

Riff 3
G|--------------------|
D|--------------------|
A|----------44444446--|
E|-11111111-----------|

Riff 4
G|---------------------------------------|-------------------------------|
D|----------------46-66-66-----------9/0-|----------6--------------------|
A|-22-22-46-66-66----------67-77-77-7----|-22-22-46---6-4-2--------------|
E|---------------------------------------|------------------4-2-0-012----|

Riff 5
G|------------------------------------|
D|--------------------161416^-1614----|
A|-22222222214--14h16------------16---|
E|------------------------------------|

Riff 6
G|---------------------------------------------------------------------------|
D|----------------1413-------------------------------------------------------|
A|--------------------1614--11--13--14-13h14-14-13-11---13---141311----------|
E|-1216-15h17-17-------------------------------------11---11------13141197-0-|

G|--------------------|
D|--2--2-2--4h6-6--4--|
A|-2------------------|
E|--------------------|

Riff 7
G|------------------------------------|--------|
D|----------4----------4--------------|-4h64---|
A|-22-22-4h6-646-6--6---6-4-2---------|-----6--|
E|----------------------------4-2-0-0-|--------|

Riff 1 2x
Riff 2
Riff 3 3x
Riff 4
Riff 5
Riff 1 2x
Riff 2
Riff 3 3x
Riff 4
Riff 6
Riff 7 2x
            
Submit corrections


        Angels Or Devils lessons Hard to play? Try these video lessons and learn fast Angels Or Devils lessons
        
↑ Back to top | Tablatures and chords for acoustic guitar and electric guitar, ukulele, drums are parodies/interpretations of the original songs. You may use it for private study, scholarship, research or language learning purposes only