» » »

Dishwalla - Charlie Browns Parents Bass

Artists:  A B C D E F G H I J K L M N O P Q R S T U V W X Y Z # 

Charlie Browns Parents Bass

(ver. 1) Click to play this song!
Dishwalla
 Rating:
4/5 (4 votes)

 Charlie Browns Parents lessons Tabs too difficult? Try these video lessons and learn fast
 
                Intro x3
G   --------------------------------------------------------------|
D   ----------------------3---------------------------------------|
A   ---------4-----5----------------------------------------------|
E   ----5---------------------------------------------------------|

Slide x4
G   -------------------------------------------------------------|
D   -------------------------------------------------------------|
A   --9-8-7-6----------------------------------------------------|
E   ----------10-9-8-7-------------------------------------------|

Pre Verse x1
G  ------------------------------------------------------|
D  ----------------------------------------------5[ring]-|
A  -------------------------------666-66-66-6-6----------|
E  --022-22-22-2-2-555-55-55-5-5-------------------------|

Verse x1
G  ----------------------------------------------------------|
D  ----------------------------------------------------------|
A  ----------------------------------------------------------|
E  --02-202-02-202-02-202-02-202-02-202-02-202-02-202-02-202-|

G  -----------------------------------------------------------|
D  -----------------------------------------------------------|
A  -----------------------------------------------------------|
E  --02-202-55-545-77-757-33-323-02-202-55-545-77-757-33-323--|

Pre Chorus x1
G  -----------------------------------------------------------|
D  --------------------------------------------555-55-55-5-5--|
A  ------------------------------666-66-66-6-6----------------|
E  --022-22-22-2-2-555-55-55-5-5------------------------------|

G  -----------------------------------------------------------|
D  ---------------------------------------------5[ring]-------|
A  -------------------------------666-66-66-6-6---------------|
E  --022-22-22-2-2-555-55-55-5-5------------------------------|

Chorus
G  -----------------------------------------------------------|
D  --------------------------------------------333-33-33-3-3--|
A  ----------------444-44-44-4-4-555-55-55-5-5----------------|
E  --555-55-55-5-5--------------------------------------------|

G  -----------------------------------------------------------|
D  --------------------------------------------3[ring]--------|
A  ----------------444-44-44-4-4-555-55-55-5-5----------------|
E  --555-55-55-5-5--------------------------------------------|

Verse x1
G  ----------------------------------------------------------|
D  ----------------------------------------------------------|
A  ----------------------------------------------------------|
E  --02-202-02-202-02-202-02-202-02-202-02-202-02-202-02-202-|

G  -----------------------------------------------------------|
D  -----------------------------------------------------------|
A  -----------------------------------------------------------|
E  --02-202-55-545-77-757-33-323-02-202-55-545-77-757-33-323--|

Pre Chorus x1
G  -----------------------------------------------------------|
D  --------------------------------------------555-55-55-5-5--|
A  ------------------------------666-66-66-6-6----------------|
E  --022-22-22-2-2-555-55-55-5-5------------------------------|

G  -----------------------------------------------------------|
D  --------------------------------------------5[ring]--------|
A  ------------------------------666-66-66-6-6----------------|
E  --022-22-22-2-2-555-55-55-5-5------------------------------|

Chorus
G  -----------------------------------------------------------|
D  --------------------------------------------333-33-33-3-3--|
A  ----------------444-44-44-4-4-555-55-55-5-5----------------|
E  --555-55-55-5-5--------------------------------------------|

G  -----------------------------------------------------------|
D  --------------------------------------------3[ring]--------|
A  ----------------444-44-44-4-4-555-55-55-5-5----------------|
E  --555-55-55-5-5--------------------------------------------|

Slide x8
G   ---------------------------------------|
D   ---------------------------------------|
A   --9-8-7-6------------------------------|
E   ----------10-9-8-7---------------------|

Pre Chorus x1
G  ----------------------------------------------------------|
D  --------------------------------------------555-55-55-5-5-|
A  ------------------------------666-66-66-6-6---------------|
E  --022-22-22-2-2-555-55-55-5-5-----------------------------|

G  -----------------------------------------------------|
D  --------------------------------------------5-5-5-5--|
A  ------------------------------666-66-66-6-6----------|
E  --022-22-22-2-2-555-55-55-5-5------------------------|

Chorus till fade out
G  ----------------------------------------------------------|
D  --------------------------------------------333-33-33-3-3-|
A  ----------------444-44-44-4-4-555-55-55-5-5---------------|
E  --555-55-55-5-5-------------------------------------------|
            
Submit corrections


        Charlie Browns Parents lessons Hard to play? Try these video lessons and learn fast Charlie Browns Parents lessons
        
↑ Back to top | Tablatures and chords for acoustic guitar and electric guitar, ukulele, drums are parodies/interpretations of the original songs. You may use it for private study, scholarship, research or language learning purposes only