Home » D » Dirty Heads »

Dirty Heads - Lay Me Down Bass

Artists:  A B C D E F G H I J K L M N O P Q R S T U V W X Y Z # 

Lay Me Down Bass

(ver. 2) Click to play this song!
Dirty Heads
Intro
G ------------------------------------------|
D ------7h9--7h9----------------------------|   X1
A ------------------------------------------|
E ------------------------------------------|

Verse
G ------------------------------------------|
D ----------------------------------9p7-----|   X4
A ----7-----7h10-7----------------------10--|
E -----------------5----5h7--7--------------|

Chorus
G ------------------------------------------|
D ------------5-----------------------------|   
A --------5h7----7--5-----------------------|
E --3-3----------------5-5--------3h2p3p5---|

G ------------------------------------------|
D ------------5-----------------------------|   
A --------5h7----7--5----------------5------|
E --3-3----------------5-5--------5h3-------|

G ------------------------------------------|
D ------------5-----------------------------|   
A --------5h7----7--5-----------------------|
E --3-3----------------5-5--------3h2p3p5---|

G ------------------------------------------|
D ------------5------5----------------------|  
A --------5h7----5h7------------------------|
E --3-3-----------------5-5-------5h7--5h7--|

Bridge (notes in parenthesis are muted, and are the first two notes of a triplet)
G ------------------------------------------|
D ------------------------------------------|   X4
A ---------(00)002222-----------------------|
E ---3-3-3----------------------------------|

3rd Verse
G ------------------------------------------|
D ------------------------------------------|   X8
A ---------(00)002222-----------------------|
E ---3-3-3----------------------------------|

End Riff
G ------------------------------------------|
D --3--3------5-5---5---5h7-7-7s9-7-5---5h7-|   x4
A --------5h7-----7---7---------------7-----|
E ------------------------------------------|            
Submit corrections

↑ Back to top | Tablatures and chords for acoustic guitar and electric guitar, ukulele, drums are parodies/interpretations of the original songs. You may use it for private study, scholarship, research or language learning purposes only