Home » D » Dirty Heads »

Dirty Heads - Lay Me Down Bass

Artists:  A B C D E F G H I J K L M N O P Q R S T U V W X Y Z # 

Lay Me Down Bass

(ver. 1) Click to play this song!
Dirty Heads
100% correct
My bass teacher tabbed it out for me
its a tricky song just listen to it and you will get the timing down

Intro
G ------------------------------------------|
D ------7h9--7h9----------------------------|   X1
A ------------------------------------------|
E ------------------------------------------|

Verse
G ------------------------------------------|
D --------------------------------7-9-7-----|   X4
A -----7--7-10-7------------------------10--|
E -----------------5--5----7-7--------------|

Chorus
G ------------------------------------------|
D ------------5------5----------------------|   X3
A --------5h7----5h7-------------3-2--------|
E --3-3-----------------5-5----5-----5------|

Chorus End
G ------------------------------------------|
D ------------5------5---------7h9---7h9----|   X1
A --------5h7----5h7------------------------|
E --3-3-----------------5-5-----------------|

Bridge
G ------------------------------------------|
D ------------------------------------------|   X4
A ---------0002222--------------------------|
E ---3-3-3----------------------------------|

3rd Verse
G ------------------------------------------|
D ------------------------------------------|   X8
A ---------0002222--------------------------|
E ---3-3-3----------------------------------|

End Riff
G ----------------------------4-2-------2---|
D ---5---5------------------------5-2-5--5--|   x4
A ------------------5h7-5---5---------------|
E ---------33--55---------------------------|
            
Submit corrections

↑ Back to top | Tablatures and chords for acoustic guitar and electric guitar, ukulele, drums are parodies/interpretations of the original songs. You may use it for private study, scholarship, research or language learning purposes only