Home » D » Dirty Heads »

Dirty Heads - Sloths Revenge Tabs

Artists:  A B C D E F G H I J K L M N O P Q R S T U V W X Y Z # 

Sloths Revenge Tabs

(ver. 1) Click to play this song!
Dirty Heads
-------------------------------------------------------------------------------
-------------------------------------------------------------------------------

Tuning: Standard

Intro

e|-----------------------------------------------------------------------------|
B|-----------------------------------------------------------------------------|
G|-----------------------------------------------------------------------------|
D|-----------------------------------------------------------------------------|
A|---7-x-x-6-7-x-x-7-7-x-6-7-9-7-6--4-x-x-2-4-x-x-4-4-x-2-4--------------------|
E|-----------------------------------------------------------------------------|

Verse/ Chorus     Listen to the song to get the rhythm down
e|---------------------------------------------------------------------------------|
B|---------------------------------------------------------------------------------|
G|--9--9--8--9--x--9--9--8--9--9--8--6--6--4--6--x--6--6--4--6---------------------|
D|--9--9--8--9--x--9--9--8--9--9--8--6--6--4--6--x--6--6--4--6---------------------|
A|--7--7--6--7--x--7--7--6--7--7--6--4--4--2--4--x--4--4--2--4---------------------|
E|---------------------------------------------------------------------------------|

      play these chords for the last two measures. strum like 10x each
e|-------------------------------------------------------------------------------|
B|-------------------------------------------------------------------------------|
G|---6---------8-----------------------------------------------------------------|
D|---7---------9-----------------------------------------------------------------|
A|---7---------9-----------------------------------------------------------------|
E|---5---------7-----------------------------------------------------------------|

then back to the intro and just repeat everything


Chorus Variation- only one extra chord thrown in.
Duddy plays it this way live sometimes
e|----------------------------------------------------------------------------------|
B|----------------------------------------------------------------------------------|
G|--9--9--8--9--x--9--9--8--9--11--9--8--6--6--4--6--x--6--6--4--6------------------|
D|--9--9--8--9--x--9--9--8--9--11--9--8--6--6--4--6--x--6--6--4--6------------------|
A|--7--7--6--7--x--7--7--6--7--9---7--6--4--4--2--4--x--4--4--2--4------------------|
E|----------------------------------------------------------------------------------|
            
Submit corrections

↑ Back to top | Tablatures and chords for acoustic guitar and electric guitar, ukulele, drums are parodies/interpretations of the original songs. You may use it for private study, scholarship, research or language learning purposes only