Home » D » Destroyer 666 »

Destroyer 666 - Eternal Glory Of War Tabs

Artists:  A B C D E F G H I J K L M N O P Q R S T U V W X Y Z # 

Eternal Glory Of War Tabs

(ver. 2) Click to play this song!
Destroyer 666
Tuning: Eb

Lead I
e|---------------------------------------------------------------------------|
B|---------------------------------------------------------------------------|
G|---------------------------------------------------------------------------|
D|5~-----7~--8~---5~--7~--8~--5~--8~--7~-------------------------------------|
A|---------------------------------------------------------------------------|
E|---------------------------------------------------------------------------|

Rhythym I
e|---------------------------------------------------------------------------|
B|---------------------------------------------------------------------------|
G|---------------------------------------------------------------------------|
D|5---5---7---8----5---7---8---5---8---7-7-7-7-7-7---------------------------|
A|5---5---7---8----5---7---8---5---8---7-7-7-7-7-7---------------------------|
E|3---3---5---6----3---5---6---3---6---5-5-5-5-5-5---------------------------|

Rhythym II
e|---------------------------------------------------------------------------|
B|---------------------------------------------------------------------------|
G|---------------------------------------------------------------------------|
D|5--5-5-5--7--8--8---5-5--7--8--8--5-5--8--7--7-7-7-7-----------------------|
A|5--5-5-5--7--8--8---5-5--7--8--8--5-5--8--7--7-7-7-7-----------------------|
E|3--3-3-3--5--6--6---3-3--5--6--6--3-3--6--5--5-5-5-5-----------------------|

Lead II
e|---------------------------------------------------------------------------|
B|---------------------------------------------------------------------------|
G|---------------------------------------------------------------------------|
D|10~--12~--10~-8~---12~--13~--12~-10~---------------------------------------|
A|---------------------------------------------------------------------------|
E|---------------------------------------------------------------------------|

Lead III (Verse)
e|---------------------------------------------------------------------------|
B|---------------------------------------------------------------------------|
G|---------------------------------------------------------------------------|
D|5~----7~-8~--5~-8~-7~-5~-8~-7~---------------------------------------------|
A|---------------------------------------------------------------------------|
E|---------------------------------------------------------------------------|

Rhythym III (Verse)
e|---------------------------------------------------------------------------|
B|---------------------------------------------------------------------------|
G|---------------------------------------------------------------------------|
D|5--5-5-5--7--8--8---5-5--8--7--7--5-5--8--7--7-7-7-7-----------------------|
A|5--5-5-5--7--8--8---5-5--8--7--7--5-5--8--7--7-7-7-7-----------------------|
E|3--3-3-3--5--6--6---3-3--6--5--5--3-3--6--5--5-5-5-5-----------------------|

Lead I&II and Lead III&II take turns in the verses, same with Rhythym guitars

Break
e|---------------------------------------------------------------------------|
B|---------------------------------------------------------------------------|
G|---------------------------------------------------------------------------|
D|---------------------------------------------------------------------------|
A|8-8-8-8-8-8-8-8-8-8-8-8-7-7-7-7-7-7-7-7-7-7-7-7----------------------------|
E|6-6-6-6-6-6-6-6-6-6-6-6-5-5-5-5-5-5-5-5-5-5-5-5----------------------------|

Last chord
e|---------------------------------------------------------------------------|
B|---------------------------------------------------------------------------|
G|---------------------------------------------------------------------------|
D|5--------------------------------------------------------------------------|
A|5--------------------------------------------------------------------------|
E|3--------------------------------------------------------------------------|            
Submit corrections

↑ Back to top | Tablatures and chords for acoustic guitar and electric guitar, ukulele, drums are parodies/interpretations of the original songs. You may use it for private study, scholarship, research or language learning purposes only