Home » D » Destroyer 666 »

Destroyer 666 - Eternal Glory Of War Tabs

Artists:  A B C D E F G H I J K L M N O P Q R S T U V W X Y Z # 

Eternal Glory Of War Tabs
Version #1
Destroyer 666


Copy URL
Band:Destroyer 666


---------------------------------------------------------------------------------
, - tremolo picking


1.1
---------------------------------------
---------------------------------------
---------------------------------------
-4-----6--7----4-----6--7----4-----7--6
---------------------------------------  
---------------------------------------
 ,,,,,,,,,,,,,,,,,,,,,,,,,,,,,,,,,,,,,,

1.2
----------------------------------
----------------------------------
----------------------------------
-4---4-6-7--4-6-7--4-6-7--4-7-6---
-4---4-6-7--4-6-7--4-6-7--4-7-6---
-2---2-4-5--2-4-5--2-4-5--2-5-4---

1.3
----------------------------
----------------------------
----------------------------
-9---12--7---9--11---12--7--
----------------------------
----------------------------
 ,,,,,,,,,,,,,,,,,,,,,,,,,,,

1.4
---------------------------------------
---------------------------------------
---------------------------------------
-4-----6--7----4-----7--6----4-----7--6
---------------------------------------  
---------------------------------------
 ,,,,,,,,,,,,,,,,,,,,,,,,,,,,,,,,,,,,,,

1.5
-------------
-------------
-------------
-9--7--11--9-
-------------
-------------
 ,,,,,,,,,,,,


1.6
----------
----------
----------
-2-------4
-3-------2
----------
(not 100% sure on this last part, but i'm pretty sure it hangs around B5 and C#5 roots)

RIFF ORDER
1.1
1.1 + 1.2
1.1
1.1 + 1.3
1.2
1.4
1.4 + 1.3
1.2
1.1
1.1 + 1.3
1.2
1.4
1.4 + 1.3
1.2
1.1
1.1 + 1.5
1.6
1.1 
1.2
            
Submit corrections

↑ Back to top | Tablatures and chords for acoustic guitar and electric guitar, ukulele, drums are parodies/interpretations of the original songs. You may use it for private study, scholarship, research or language learning purposes only