» » »

Deftones - Feiticeira Tabs

Artists:  A B C D E F G H I J K L M N O P Q R S T U V W X Y Z # 

Feiticeira Tabs

(ver. 3) Click to play this song!
Deftones
 Rating:
4/5 (4 votes)

 Feiticeira lessons Tabs too difficult? Try these video lessons and learn fast
 
                
I believe this is the correct way to play the song.
I've seen Stephen do it like this many times before and hopefully more times to come.

I've also seen the Deftones tab book for White Pony and I am p*ssed because the intro
is all wrong! If you've seen Steph play this live, you could agree with me.

Drop C tuning (low to high: C G C F A D)

It may look long 'cause |IT'S IN ORDER| so just listening along with the song
and you'll get it.


Key:
	* = harmonic
	/ = slide up
	\ = slide down
	~ = um...hold?

Intro: x1
D|------------------------------------------------|
A|------------------------------------------------|
F|------------------------------------------------|
C|--------------9*-9*-------------------6/7\6-6p0-|
G|-9*-9*-9*-9*--9*-9*-9*-9*-9*-9*-9*-9*-4/5\4-4p0-|
C|-9*-9*-9*-9*--9*-9*-9*-9*-9*-9*-9*-9*-----------|

Intro2: x7 
D|------------------------------------------|
A|------------------------------------------|
F|--------------9*--------------------------|
C|--------------9*-9*-------------6/7\6-6p0-|
G|-9*-9*-9*-9*--9*-9*-9*-9*-9*-9*-4/5\4-4p0-|
C|-9*-9*-9*-9*--9*-9*-9*-9*-9*-9*-----------|

Verse: 4x
D|--------------------------------|
A|--------------------------------|
F|-6-6-6-6-6-6-6-6-6-6---------7*-|
C|-6-6-6-6-6-6-6-6-6-6-6/7\6-0-7*-|
G|-4-4-4-4-4-4-4-4-4-4-6/7\6-0-7*-|
C|---------------------6/7\6-0----|

Re-Intro: x1
D|------------------------------------------------|
A|------------------------------------------------|
F|------------------------------------------------|
C|--------------9*-9*-------------------6/7\6-6p0-|
G|-9*-9*-9*-9*--9*-9*-9*-9*-9*-9*-9*-9*-4/5\4-4p0-|
C|-9*-9*-9*-9*--9*-9*-9*-9*-9*-9*-9*-9*-----------|

Re-Intro2: x7 
D|------------------------------------------|
A|------------------------------------------|
F|--------------9*--------------------------|
C|--------------9*-9*-------------6/7\6-6p0-|
G|-9*-9*-9*-9*--9*-9*-9*-9*-9*-9*-4/5\4-4p0-|
C|-9*-9*-9*-9*--9*-9*-9*-9*-9*-9*-----------|

Verse2: 8x
D|--------------------------------|
A|--------------------------------|
F|-6-6-6-6-6-6-6-6-6-6---------7*-|
C|-6-6-6-6-6-6-6-6-6-6-6/7\6-0-7*-|
G|-4-4-4-4-4-4-4-4-4-4-6/7\6-0-7*-|
C|---------------------6/7\6-0----|

?Fill?: x1 
D|------------------------------|
A|------------------------------|
F|-10~---6/10~---6/10~---6/10~--| The (4x6) is a down beat. Frank does that bending
C|--x----x--x~---x--x----x--x---| but you can do it. Just ben the low C on the 11th
G|--8~---4/-8~---4/-8~---4/-8~--| fret and pull off.
C|------------------------------|

Verse3: 8x
D|--------------------------------|
A|--------------------------------|
F|-6-6-6-6-6-6-6-6-6-6---------7*-|
C|-6-6-6-6-6-6-6-6-6-6-6/7\6-0-7*-|
G|-4-4-4-4-4-4-4-4-4-4-6/7\6-0-7*-|
C|---------------------6/7\6-0----|

HARMONICS!:  this is the first time Chino sings "Soon I'll let you go",
Stephen does these harmonics. Do this in a steady pace.
D|--------------------------------------------------|
A|--------------------------------------------------|
F|-------------------------------5*-5*-5*-5*-5*-5*--|
C|-------------------------5*-5*--------------------|
G|-5*-5*-5*-5*-5*-5*-5*-5*--------------------------|
C|--------------------------------------------------|

?Fill?: x1 
"...Soon this will be all over, well I hope so..."
D|------------------------------|
A|------------------------------|
F|-10~---6/10~---6/10~---6/10~--| 
C|--x----x--x~---x--x----x--x---| 
G|--8~---4/-8~---4/-8~---4/-8~--|
C|------------------------------|

Outro: uhh... x16? It's kind of hard to tell.
D|-------------------------------------|
A|-------------------------------------|
F|--6/10-10-10-10-10-10-10-10-10-10-6--|
C|--x--x--x--x--x--x--x--x--x--x--x-x--|
G|--4/-8--8--8--8--8--8--8--8--8--8-4--|
C|-------------------------------------|

End on:
D|-----|
A|-----|
F|-10~-|
C|--x~-|
G|--8~-|
C|--0~-|
            
Submit corrections


        Feiticeira lessons Hard to play? Try these video lessons and learn fast Feiticeira lessons
        
↑ Back to top | Tablatures and chords for acoustic guitar and electric guitar, ukulele, drums are parodies/interpretations of the original songs. You may use it for private study, scholarship, research or language learning purposes only