» » »

Deftones - Rosemary Tabs

Artists:  A B C D E F G H I J K L M N O P Q R S T U V W X Y Z # 

Rosemary Tabs

(ver. 1) Click to play this song!
Deftones
 Rating:
4/5 (4 votes)

 Rosemary lessons Tabs too difficult? Try these video lessons and learn fast
 
                -------------------------------------------------------------------------------
-------------------------------------------------------------------------------

THIS TAB IS TO BE USED AS A GUIDELINE AND IS IN NO WAY 100% ACCURATE

Tuning: E-B-E-A-D-G-B-E
Tuning: C-G-C-F-A-D

This tab is a mix of Chino's main riff and then the rest is Stef's parts.


D|-------5----------5-|
A|----3----------3----|
F|-3----------3-------|
C|--------------------|
G|--------------------|
C|--------------------|


D|-------------------------------------------------------------|
A|-----------------------------------------------------10-10---|
F|-2-----2/5----5/7/10----10----2-----2/5----5/7/10----------9-|
C|---3-0--------------------------3-0--------------------------|
G|-------------------------------------------------------------|
C|-------------------------------------------------------------|


D|---------------------------------------------------------------|
A|--------------------------------------------------------0----0-|
F|-2-----2/5----5/7/10--10-10------------------------------------|
C|---3-0-------------------------3-3-0-3-3/5---------0~----------|
G|---------------------------------------------3/5v--0~----------|
C|---------------------------------------------------0~----------|


D|-------------------------------------------------------------|
A|-----------------------------------------------------10-10---|
F|-2-----2/5----5/7/10----10----2-----2/5----5/7/10----------9-|
C|---3-0--------------------------3-0--------------------------|
G|-------------------------------------------------------------|
C|-------------------------------------------------------------|


D|------------------------------------------------------|
A|------------------------------------------------------|
F|-2-----2/5----5/7/10--10-10---------------------------|
C|---3-0-------------------------3-3-0-3-3/5---------0~-|
G|---------------------------------------------3/5v--0~-|
C|---------------------------------------------------0~-|


E|-------------------------------------------------------------------------------|
B|-------------------------------------------------------------------------------|
G|-------------------------------------------------------------------------------|
D|-------------------------------------------------------------------------------|
A|-------------------------------------------------------------------------------| x2
E|-------------------------------------------------------------------------------|
B|-------------------------------------------------------------------------------|
E|-8-8-8-8-8-8-6-6-8-8-8-8-8-8-4p3-4p3-8-8-8-8-8-8-6-6-11-11-11-11-11-11-2p1-2p1-|


E|--------------------------------------------|
B|--------------------------------------------|
G|--------------------------------------------|
D|--------------------------------------------|
A|------------------x5------------------------|
E|--------------------------------------------|
B|--------------------------------------------|
E|-8-8-8-8-8-8-6-6------11-11-11-13-13-13-6-6-|


E|-------------------------------------------------------------------------------|
B|-------------------------------------------------------------------------------|
G|-------------------------------------------------------------------------------|
D|-------------------------------------------------------------------------------|
A|-------------------------------------------------------------------------------| x1
E|-------------------------------------------------------------------------------|
B|-------------------------------------------------------------------------------|
E|-8-8-8-8-8-8-6-6-8-8-8-8-8-8-4p3-4p3-8-8-8-8-8-8-6-6-11-11-11-11-11-11-2p1-2p1-|


E|-------------------|
B|-------------------|
G|-------------------|
D|-8---------13------|
A|-8--x32----13--x16-| x1
E|-6---------11------|
B|-6---------11------|
E|-----------11------|


E|------------------------------------------------------------------------------------------|
B|------------------------------------------------------------------------------------------|
G|------------------------------------------------------------------------------------------|
D|------------------------------------------------------------------------------------------|
A|------------------------------------------------------------------------------------------| x1
E|------------------------------------------------------------------------------------------|
B|------------------------------------------------------------------------------------------|
E|-6h8----8--6h8----6h8-8--6h8----8--6h8----6h8-8--6h8----8--6h8----6h8-8--6h8----8--6h8-8\-|


D|-------------------------------------------------------------|
A|-----------------------------------------------------10-10---|
F|-2-----2/5----5/7/10----10----2-----2/5----5/7/10----------9-|
C|---3-0--------------------------3-0--------------------------|
G|-------------------------------------------------------------|
C|-------------------------------------------------------------|


D|------------------------------------------------------|
A|------------------------------------------------------|
F|-2-----2/5----5/7/10--10-10---------------------------|
C|---3-0-------------------------3-3-0-3-3/5---------0~-|
G|---------------------------------------------3/5v--0~-|
C|---------------------------------------------------0~-|


E|-------------------------------------------------------------------------------|
B|-------------------------------------------------------------------------------|
G|-------------------------------------------------------------------------------|
D|-------------------------------------------------------------------------------|
A|-------------------------------------------------------------------------------| x2
E|-------------------------------------------------------------------------------|
B|-------------------------------------------------------------------------------|
E|-8-8-8-8-8-8-6-6-8-8-8-8-8-8-4p3-4p3-8-8-8-8-8-8-6-6-11-11-11-11-11-11-2p1-2p1-|


E|----------------------------------------|
B|----------------------------------------|
G|----------------------------------------|
D|-8---------13---------8---------13------|
A|-8--x32----13--x16----8--x32----13--x16-| x1
E|-6---------11---------6---------11------|
B|-6---------11---------6---------11------|
E|-----------11-------------------11------|


E|--------------------------------------------------------------------------------|
B|--------------------------------------------------------------------------------|
G|--------------------------------------------------------------------------------|
D|--------------------------------------------------------------------------------|
A|--------------------------------------------------------------------------------| x3
E|--------------------------------------------------------------------------------|
B|--------------------------------------------------------------------------------|
E|-1-0-4-3--1-0-4-3--1-0-4-3--1-0-4-3--1-0-4-3--1-0-4-3--1-0-4-3--1-0-4-3-1-0-4-3-|


E|--------------------------------------------|
B|--------------------------------------------|
G|--------------------------------------------|
D|--------------------------------------------|
A|--------------------------------------------| x1
E|--------------------------------------------|
B|--------------------------------------------|
E|-1-0-4-3--1-0-4-3--1-0-4-3--1-0-4-3-1-0-4-3-|
            
Submit corrections


        Rosemary lessons Hard to play? Try these video lessons and learn fast Rosemary lessons
        
↑ Back to top | Tablatures and chords for acoustic guitar and electric guitar, ukulele, drums are parodies/interpretations of the original songs. You may use it for private study, scholarship, research or language learning purposes only