» » »

Deftones - Pink Maggit Tabs

Artists:  A B C D E F G H I J K L M N O P Q R S T U V W X Y Z # 

Pink Maggit Tabs

(ver. 1) Click to play this song!
Deftones
 Rating:
4/5 (4 votes)

 Pink Maggit lessons Tabs too difficult? Try these video lessons and learn fast
 
                tuning drop C= CGCFAD

D-------------------------------------------------
A-------------------------------------------------
F---------------------------------------------3---
C---------8----------10-----------7---------------
G-----8----------8------------5-----------1-------
C--8----------0------------5-----------1----------

D---------------------------------------------------------
A---------------------------------------------------------
F------------------------------------------------------3--
C---------8----------10-----------7-5h77-8-7-4------------
G-----8----------8------------5--------------------1------
C--8----------0------------5--------------------1---------

D------------------------
A------------------------
F--10---10---7---7/7-7---
C--8----0----5---5/4-4---
G--8----0----5---5/4-4---
C--8----0----5---5/4-4---

2nd guitar fill
D----------------------------------------------------------
A----------------------------------------------------------
F-11/12-121212-12-1212-1212-12/14-141414-14/15-1515-15/14--
C----------------------------------------------------------
G--9/10-101010-10-1010-1010-10/12-121212-12/13-1313-13/12--
C----------------------------------------------------------


lyrics-
i\'ll stick you a little
enough to take your 
oxygen away
then i\'ll set you on fire
cause i\'m on fire
and i\'m with you alone
and so in this whore
don\'t be afraid
i might lose her so forget about me
because i\'ll stick you
pushed back the square 
now that you kneed her in the throat 
well there you go
cause back in school we are the leaders
of all so transpose
or stop your life is what you do
all you are is meat 
now pass the flask

t
            
Submit corrections


        Pink Maggit lessons Hard to play? Try these video lessons and learn fast Pink Maggit lessons
        
↑ Back to top | Tablatures and chords for acoustic guitar and electric guitar, ukulele, drums are parodies/interpretations of the original songs. You may use it for private study, scholarship, research or language learning purposes only