» » »

Deftones - Korea Tabs

Artists:  A B C D E F G H I J K L M N O P Q R S T U V W X Y Z # 

Korea Tabs

(ver. 1) Click to play this song!
Deftones
 Rating:
4/5 (4 votes)

 Korea lessons Tabs too difficult? Try these video lessons and learn fast
 
                PROPS GO TO: stOOpid

Korea-Deftones
(From White Pony)
This is one KING song by Deftones, hope this can be useful to someone as I found it a bugger to work out.

This tab is for 7-string, the tuning is 1 step down from normal tuning but with an additional dropped 7th string, as below.

INTRO:  play x2
D-----------------------------------------------------------
A-------0----------0----------0----------0----------0-------
F-------15---------15---------15--------18--------18--------
C-------0----------0-----------0----------0---------0-------
G-------14---------14---------14--------17--------17--------
D-----------------------------------------------------------
G-----------------------------------------------------------


Chorus:
D-----------------------------------------------------------
A-----------------------------------------------------------
F-----------------------------------------------------------
C-----------------------6-----6-----------------------------
G---6-----5-----0-----5-----5-------------------------------
D---6-----5-----0-------------------------------------------
G---6-----5-----0-------------------------------------------
Add fibrato to every 3rd 6/5 chord to create the same effect.

Bridge:
D-----------------------------------------------------------
A-----------------------------------------------------------
F-----------------------------------------------------------
C------7-----5-----8-----7----------------------------------
G------7-----7-----7-----7----------------------------------
D-----------------------------------------------------------
G-----------------------------------------------------------
This is just the chord pattern, just listen to the song for the rhythm: it’s not hard to work out.

Interlude:
D-----------------------------------------------------------
A-----------------------------------------------------------
F-----------------------------------------------------------
C-----------------------------------------------------------
G-----5-----12----------10----------6-----------------------
D-----5-----12----------10----------6-----------------------
G-----5-----12-----(12)10-----(10)6-------------------------

Above the numbers in brackets are slides that are added as extra to the sets of four. Again this is just the chord pattern.
Hope this helps, ENJOY!
stOOpid
            
Submit corrections


        Korea lessons Hard to play? Try these video lessons and learn fast Korea lessons
        
↑ Back to top | Tablatures and chords for acoustic guitar and electric guitar, ukulele, drums are parodies/interpretations of the original songs. You may use it for private study, scholarship, research or language learning purposes only