» » »

Deftones - Doomed User Tabs

Artists:  A B C D E F G H I J K L M N O P Q R S T U V W X Y Z # 

Doomed User Tabs

(ver. 1) Click to play this song!
Deftones
 Rating:
4.1/5 (31 vote)

 Doomed User  lessons Tabs too difficult? Try these video lessons and learn fast
 
                INTRO
F |------------------------------------------------|
C |------------------------------------------------|
G#|------------------------------------------------|
D#|------------------------------------------------|
A#|------------7-7-7-7-7-7-----------7-7-7-7-7-7---|
F |------------7-7-7-7-7-7-----------7-7-7-7-7-7---|
C |------------5-5-5-5-5-5-----------5-5-5-5-5-5---|
F |---7-5-1-0----------------7-5-1-0---------------|

VERSE
F |------------------------------------------------------------------|
C |------------------------------------------------------------------|
G#|------------------------------------------------------------------|
D#|------------------------------------------------------------------|
A#|---4-4-4-4-4-4-4/6-6b^--4-4-4-4-4-4-4/6-6b^-6b^--2-2-2-2--4-4-4---|
F |---4-4-4-4-4-4-4/6-6b^--4-4-4-4-4-4-4/6-6b^-6b^--2-2-2-2--2-2-2---|
C |---2-2-2-2-2-2-2/4-4b^--2-2-2-2-2-2-2/4-4b^-4b^--0-0-0-0--2-2-2---|
F |----------------------------------------------------------2-2-2---|
        . .   . .            . .   . .

          
CHORUS
F |---------------------------------|
C |---------------------------------|
G#|---------------------------------|
D#|---------------------------------|
A#|---4-4-4-4--2-2--6-6-6-6-6-6-6---|
F |---4-4-4-4--2-2--6-6-6-6-6-6-6---|
C |---2-2-2-2--0-0--4-4-4-4-4-4-4---| x2
F |---------------------------------|

F |-------------------------------------------------------------------------|
C |-------------------------------------------------------------------------|
G#|-------------------------------------------------------------------------|
D#|-------------------------------------------------------------------------|
A#|---9-9-9-9-9-9--11-11-11-11-11-11--10-10-10-10-10-10-10-10-10-10-10-10---|
F |---9-9-9-9-9-9--11-11-11-11-11-11--10-10-10-10-10-10-10-10-10-10-10-10---|
C |---7-7-7-7-7-7--9--9--9--9--9--9---8--8--8--8--8--8--8--8--8--8--8--8----|
F |-------------------------------------------------------------------------|


BRIDGE/OUTRO
F |------------3*~~~~~~~~------------5*~~~~~~~------------3*~~~~~---|
C |------------3*~~~~~~~~------------5*~~~~~~~------------3*~~~~~---|
G#|------------3*~~~~~~~~------------5*~~~~~~~------------3*~~~~~---|
D#|-----------------------------------------------------------------|
A#|-----------------------------------------------------------------|
F |-----------------------------------------------------------------|
C |-----------------------------------------------------------------|
F |---7-5-1-0----------------7-5-1-0--------------7-5-1-0-----------|

F |---------------------------------5*~~~~~~~~---| DIVEBOMB ON OUTRO!
C |---------------------------------5*~~~~~~~~---|
G#|---------------------------------5*~~~~~~~~---|
D#|---------------------------------5*~~~~~~~~---|
A#|----------------------------------------------|
F |----------------------------------------------|
C |----------------------------------------------| 
F |---7-5-1-0--11-9-7-0--13-11-9-0---------------|            
Submit corrections


        Doomed User  lessons Hard to play? Try these video lessons and learn fast Doomed User  lessons
        
↑ Back to top | Tablatures and chords for acoustic guitar and electric guitar, ukulele, drums are parodies/interpretations of the original songs. You may use it for private study, scholarship, research or language learning purposes only