» » »

Deftones - Damone Tabs

Artists:  A B C D E F G H I J K L M N O P Q R S T U V W X Y Z # 

Damone Tabs

(ver. 1) Click to play this song!
Deftones
 Rating:
4/5 (4 votes)

 Damone lessons Tabs too difficult? Try these video lessons and learn fast
 
                Tuning: Dropped Db (Db Ab Db Gb bb eb)

 
    This song is on Around the Fur and it starts on about 32:34. So I recommend taping it. 


Riff 1
eb -----------------------------------------------------------------------------------------------------------------------
bb------------------------------------------------------------------------------------------------------------------------
Gb -13-13-13-13-13-13-13-13-13-13-13-13-13-13-13-13-13-13-13-13-13-13-13-13-13-13-13-13-13---
Db -11-11-11-11-11-11-11-11-11-11-11-11-11-11-11-11-12-12-12-12-12-12-12-12-12-12-12-12-12---
Ab -11-11-11-11-11-11-11-11-11-11-11-11-11-11-11-11-12-12-12-12-12-12-12-12-12-12-12-12-12---
Db -11-11-11-11-11-11-11-11-11-11-11-11-11-11-11-11-12-12-12-12-12-12-12-12-12-12-12-12-12---


Riff 1 (continued)
eb ------------------------------------------------------------------------------------
bb ------------------------------------------------------------------------------------
Gb -9-9-9-9-9-9-9-9-9-9-9-9-9-9-9-9-9-9-9-9-9-9-9-9-9-9-9-9-9-9-9-9---
Db -7-7-7-7-7-7-7-7-7-7-7-7-7-7-7-7-8-8-8-8-8-8-8-8-8-8-8-8-8-8-8-8---
Ab -7-7-7-7-7-7-7-7-7-7-7-7-7-7-7-7-8-8-8-8-8-8-8-8-8-8-8-8-8-8-8-8---
Db -7-7-7-7-7-7-7-7-7-7-7-7-7-7-7-7-8-8-8-8-8-8-8-8-8-8-8-8-8-8-8-8---


Riff 2
eb ----------------------------------------
bb ----------------------------------------
Gb ---------------------------------------
Db ---------------------------------------
Ab -/8------------------------------------
Db ----------------000-000-00-0-------


Thing in the middle
eb ----------------------------------------------------------------------------------------
bb ----------------------------------------------------------------------------------------
Gb ----------------------------------------------------------------------------------------
Db ----------------------------------------------------------------------------------------Back to Riff 1
Ab -7-7-7-7-7-7-7-7-7-7-7-7-7-7-7-7--8-8-8-8-8-8-8-8-9-9-9-9-9-9-9-9-9-9---
Db -7-7-7-7-7-7-7-7-7-7-7-7-7-7-7-7--8-8-8-8-8-8-8-8-9-9-9-9-9-9-9-9-9-9---


Riff 4
eb -------------------------
bb -------------------------
Gb ------------------------
Db -11^---0--11^---0---
Ab -11^---0--11^---0---
Db -11^---0--11^---0---


Slow part...
eb -----------------------
bb -----------------------
Gb ----------------------
Db ----------------------
Ab -/7---\0---/7---\0---
            
Submit corrections


        Damone lessons Hard to play? Try these video lessons and learn fast Damone lessons
        
↑ Back to top | Tablatures and chords for acoustic guitar and electric guitar, ukulele, drums are parodies/interpretations of the original songs. You may use it for private study, scholarship, research or language learning purposes only