» » »

Deftones - Change Tabs

Artists:  A B C D E F G H I J K L M N O P Q R S T U V W X Y Z # 

Change Tabs

(ver. 3) Click to play this song!
Deftones
 Rating:
4/5 (4 votes)

 Change lessons Tabs too difficult? Try these video lessons and learn fast
 
                Band-Deftones
Song-Change(in the house of flies)
Album-White pony
Drop C



Intro/Verse-Clean
D ---------------------------------------------------------------------------------|
A----------------------------------------------------------------------------------|
F-10—-10—-10-—10-—10-—10-—10--10---------------------------------------------------|
C-x---x---x---x---x---x---x---x-----------5---5---5---7---7---8---8---7---7---8---8|
G-8---8---8---8---8---8---8---8-----------5---5---5---5---5---5---5---5---5---5---5|
C-0---0---0---0---0---0---0---0-----------5---5---5--------------------------------|


Chorus-Distortion                                                   
D---------------------------------------------|
A-3-3-3-3-3-3-3-3-3-3-------------------------|
F-2-2-2-2-2-2-2-2-2-2-------------------------|
C-0-0-0-0-0-0-0-0-0-0----8-8-8-8-8-8-8-8-8-8--|        Play the verse at the same 
G-0-0-0-0-0-0-0-0-0-0----8-8-8-8-8-8-8-8-8-8--|                  time
C-0-0-0-0-0-0-0-0-0-0----8-8-8-8-8-8-8-8-8-8--|





Chorus-Distortion
D----------------------------------------------|-----------------------------------|
A-3-3-3-3-3-3-3-3-3-3--------------------------|-----------------------3-3-3-3-3-3-|
F-2-2-2-2-2-2-2-2-2-2--------------------------|-----------------------2-2-2-2-2-2-|
C-0-0-0-0-0-0-0-0-0-0----8-8-8-8-8-8-8-8-8-8---|-3-3-3-3-3-3-3-3-3-3-3-0-0-0-0-0-0-|
G-0-0-0-0-0-0-0-0-0-0----8-8-8-8-8-8-8-8-8-8---|-3-3-3-3-3-3-3-3-3-3-3-0-0-0-0-0-0-|
C-0-0-0-0-0-0-0-0-0-0----8-8-8-8-8-8-8-8-8-8---|-3-3-3-3-3-3-3-3-3-3-3-0-0-0-0-0-0-|

              Play the verse at the same time.
                             Only at this part.



Interlude-Distortion
D-----------------------------------|
A-----------------------------------|
F-----------------------------------|
C--------------8-8-7-7------7-8-----|
G---0-------------------8-8---------|
C---0---5-5-------------------------|


Outro-Distortion
D-----------------------|
A-----------------------|
F-----------------------|
C---0-0-0-0---5-5-5-5---|         
G---0-0-0-0---5-5-5-5---|
C---0-0-0-0---5-5-5-5---|          


Ends on
D ----------|
A-----------|
F-----------|
C---5-5-0---|
G---5-5-0---|
C---5-5-0---|

Song Order
Intro x2
Verse x4
Chorus and intro x4
Verse x4
Chorus and intro x4
2nd chorus x4
Interlude x4
Chorus and intro x4
2nd chorus
Outro x4
End x1
            
Submit corrections


        Change lessons Hard to play? Try these video lessons and learn fast Change lessons
        
↑ Back to top | Tablatures and chords for acoustic guitar and electric guitar, ukulele, drums are parodies/interpretations of the original songs. You may use it for private study, scholarship, research or language learning purposes only