» » »

Deftones - Bloody Cape Tabs

Artists:  A B C D E F G H I J K L M N O P Q R S T U V W X Y Z # 

Bloody Cape Tabs

(ver. 3) Click to play this song!
Deftones
 Rating:
4/5 (4 votes)

 Bloody Cape lessons Tabs too difficult? Try these video lessons and learn fast
 
                DEFTONES
"Bloddy Cape"


Easy song, and it’s tabbed for guitar beginners, it won’t sound good unless you have a 7-string guitar.
7-string Guitar
Tuning: Low to high  Ab, Eb, Ab, Db, Gb, Bb, Eb

Verse
0:00 – 0:09
Eb|---------------------------------------------------------------------|
Bb|---------------------------------------------------------------------|
Gb|--5-5-5-5-5-5-5-5-5-5-5-5-5-5-5---5-5-5-5-5-5-5-5-5-5-5-5-5-5-5-5----|
Db|--5-5-5-5-5-5-5-5-5-5-5-5-5-5-5---6-6-6-6-6-6-6-6-6-6-6-6-6-6-6-6----|
Ab|--0-0-0-0-0-0-0-0-0-0-0-0-0-0-0---3-3-3-3-3-3-3-3-3-3-3-3-3-3-3-3----|
Eb|----------------------------------4-4-4-4-4-4-4-4-4-4-4-4-4-4-4-4----|
Ab|---------------------------------------------------------------------|


0:10 – 0:19
Eb|---------------------------------------------------------------------|
Bb|---------------------------------------------------------------------|
Gb|--5-5-5-5-5-5-5-5-5-5-5-5-5-5-5---5-5-5-5-5-5-5-5-5-5-5-5-5-5-5-5----|
Db|--5-5-5-5-5-5-5-5-5-5-5-5-5-5-5---6-6-6-6-6-6-6-6-6-6-6-6-6-6-6-6----|
Ab|--0-0-0-0-0-0-0-0-0-0-0-0-0-0-0---3-3-3-3-3-3-3-3-3-3-3-3-3-3-3-3----|
Eb|----------------------------------4-4-4-4-4-4-4-4-4-4-4-4-4-4-4-4----|
Ab|---------------------------------------------------------------------|


Chorus
0:20 – 0:24
Eb|------------------------------------------------|
Bb|------------------------------------------------|
Gb|------------------------------------------------|
Db|------------------------------------------------|
Ab|--0-2-2-0-2-2-0-2-2-0-2-2-3\2-2--8-8-8-8-8-8----|
Eb|--0-2-2-0-2-2-0-2-2-0-2-2-3\2-2--8-8-8-8-8-8----|
Ab|--0-2-2-0-2-2-0-2-2-0-2-2-3\2-2--8-8-8-8-8-8----|

0:25 – 0:29
Eb|-------------------------------------------------|
Bb|-------------------------------------------------|
Gb|-------------------------------------------------|
Db|-------------------------------------------------|
Ab|--0-2-2-0-2-2-0-2-2-0-2-2-3\2-2--8-8-8-8/10-10---|
Eb|--0-2-2-0-2-2-0-2-2-0-2-2-3\2-2--8-8-8-8/10-10---|
Ab|--0-2-2-0-2-2-0-2-2-0-2-2-3\2-2--8-8-8-8/10-10---|

Again...
0:30 – 0:34
Eb|------------------------------------------------|
Bb|------------------------------------------------|
Gb|------------------------------------------------|
Db|------------------------------------------------|
Ab|--0-2-2-0-2-2-0-2-2-0-2-2-3\2-2--8-8-8-8-8-8----|
Eb|--0-2-2-0-2-2-0-2-2-0-2-2-3\2-2--8-8-8-8-8-8----|
Ab|--0-2-2-0-2-2-0-2-2-0-2-2-3\2-2--8-8-8-8-8-8----|

0:35 – 0:39
Eb|-------------------------------------------------|
Bb|-------------------------------------------------|
Gb|-------------------------------------------------|
Db|-------------------------------------------------|
Ab|--0-2-2-0-2-2-0-2-2-0-2-2-3\2-2--8-8-8-8/10-10---|
Eb|--0-2-2-0-2-2-0-2-2-0-2-2-3\2-2--8-8-8-8/10-10---|
Ab|--0-2-2-0-2-2-0-2-2-0-2-2-3\2-2--8-8-8-8/10-10---|


Verse
0:40 - 0:49
Eb|---------------------------------------------------------------------|
Bb|---------------------------------------------------------------------|
Gb|--5-5-5-5-5-5-5-5-5-5-5-5-5-5-5---5-5-5-5-5-5-5-5-5-5-5-5-5-5-5-5----|
Db|--5-5-5-5-5-5-5-5-5-5-5-5-5-5-5---6-6-6-6-6-6-6-6-6-6-6-6-6-6-6-6----|
Ab|--0-0-0-0-0-0-0-0-0-0-0-0-0-0-0---3-3-3-3-3-3-3-3-3-3-3-3-3-3-3-3----|
Eb|----------------------------------4-4-4-4-4-4-4-4-4-4-4-4-4-4-4-4----|
Ab|---------------------------------------------------------------------|

0:50 - 0:59
Eb|---------------------------------------------------------------------|
Bb|---------------------------------------------------------------------|
Gb|--5-5-5-5-5-5-5-5-5-5-5-5-5-5-5---5-5-5-5-5-5-5-5-5-5-5-5-5-5-5-5----|
Db|--5-5-5-5-5-5-5-5-5-5-5-5-5-5-5---6-6-6-6-6-6-6-6-6-6-6-6-6-6-6-6----|
Ab|--0-0-0-0-0-0-0-0-0-0-0-0-0-0-0---3-3-3-3-3-3-3-3-3-3-3-3-3-3-3-3----|
Eb|----------------------------------4-4-4-4-4-4-4-4-4-4-4-4-4-4-4-4----|
Ab|---------------------------------------------------------------------|

1:00 – 1:09
Eb|---------------------------------------------------------------------|
Bb|---------------------------------------------------------------------|
Gb|--5-5-5-5-5-5-5-5-5-5-5-5-5-5-5---5-5-5-5-5-5-5-5-5-5-5-5-5-5-5-5----|
Db|--5-5-5-5-5-5-5-5-5-5-5-5-5-5-5---6-6-6-6-6-6-6-6-6-6-6-6-6-6-6-6----|
Ab|--0-0-0-0-0-0-0-0-0-0-0-0-0-0-0---3-3-3-3-3-3-3-3-3-3-3-3-3-3-3-3----|
Eb|----------------------------------4-4-4-4-4-4-4-4-4-4-4-4-4-4-4-4----|
Ab|---------------------------------------------------------------------|

1:10 – 1:19
Eb|---------------------------------------------------------------------|
Bb|---------------------------------------------------------------------|
Gb|--5-5-5-5-5-5-5-5-5-5-5-5-5-5-5---5-5-5-5-5-5-5-5-5-5-5-5-5-5-5-5----|
Db|--5-5-5-5-5-5-5-5-5-5-5-5-5-5-5---6-6-6-6-6-6-6-6-6-6-6-6-6-6-6-6----|
Ab|--0-0-0-0-0-0-0-0-0-0-0-0-0-0-0---3-3-3-3-3-3-3-3-3-3-3-3-3-3-3-3----|
Eb|----------------------------------4-4-4-4-4-4-4-4-4-4-4-4-4-4-4-4----|
Ab|---------------------------------------------------------------------|



Chorus
1:20 – 1:24
Eb|------------------------------------------------|
Bb|------------------------------------------------|
Gb|------------------------------------------------|
Db|------------------------------------------------|
Ab|--0-2-2-0-2-2-0-2-2-0-2-2-3\2-2--8-8-8-8-8-8----|
Eb|--0-2-2-0-2-2-0-2-2-0-2-2-3\2-2--8-8-8-8-8-8----|
Ab|--0-2-2-0-2-2-0-2-2-0-2-2-3\2-2--8-8-8-8-8-8----|

1:25 – 1:29
Eb|-------------------------------------------------|
Bb|-------------------------------------------------|
Gb|-------------------------------------------------|
Db|-------------------------------------------------|
Ab|--0-2-2-0-2-2-0-2-2-0-2-2-3\2-2--8-8-8-8/10-10---|
Eb|--0-2-2-0-2-2-0-2-2-0-2-2-3\2-2--8-8-8-8/10-10---|
Ab|--0-2-2-0-2-2-0-2-2-0-2-2-3\2-2--8-8-8-8/10-10---|

Again...
1:30 – 1:34
Eb|------------------------------------------------|
Bb|------------------------------------------------|
Gb|------------------------------------------------|
Db|------------------------------------------------|
Ab|--0-2-2-0-2-2-0-2-2-0-2-2-3\2-2--8-8-8-8-8-8----|
Eb|--0-2-2-0-2-2-0-2-2-0-2-2-3\2-2--8-8-8-8-8-8----|
Ab|--0-2-2-0-2-2-0-2-2-0-2-2-3\2-2--8-8-8-8-8-8----|

1:35 - 1:39
Eb|-------------------------------------------------|
Bb|-------------------------------------------------|
Gb|-------------------------------------------------|
Db|-------------------------------------------------|
Ab|--0-2-2-0-2-2-0-2-2-0-2-2-3\2-2--8-8-8-8/10-10---|
Eb|--0-2-2-0-2-2-0-2-2-0-2-2-3\2-2--8-8-8-8/10-10---|
Ab|--0-2-2-0-2-2-0-2-2-0-2-2-3\2-2--8-8-8-8/10-10---|


Verse
1:40 – 1:49
Eb|---------------------------------------------------------------------|
Bb|---------------------------------------------------------------------|
Gb|--5-5-5-5-5-5-5-5-5-5-5-5-5-5-5---5-5-5-5-5-5-5-5-5-5-5-5-5-5-5-5----|
Db|--5-5-5-5-5-5-5-5-5-5-5-5-5-5-5---6-6-6-6-6-6-6-6-6-6-6-6-6-6-6-6----|
Ab|--0-0-0-0-0-0-0-0-0-0-0-0-0-0-0---3-3-3-3-3-3-3-3-3-3-3-3-3-3-3-3----|
Eb|----------------------------------4-4-4-4-4-4-4-4-4-4-4-4-4-4-4-4----|
Ab|---------------------------------------------------------------------|

1:50 – 1:59
Eb|---------------------------------------------------------------------|
Bb|---------------------------------------------------------------------|
Gb|--5-5-5-5-5-5-5-5-5-5-5-5-5-5-5---5-5-5-5-5-5-5-5-5-5-5-5-5-5-5-5----|
Db|--5-5-5-5-5-5-5-5-5-5-5-5-5-5-5---6-6-6-6-6-6-6-6-6-6-6-6-6-6-6-6----|
Ab|--0-0-0-0-0-0-0-0-0-0-0-0-0-0-0---3-3-3-3-3-3-3-3-3-3-3-3-3-3-3-3----|
Eb|----------------------------------4-4-4-4-4-4-4-4-4-4-4-4-4-4-4-4----|
Ab|---------------------------------------------------------------------|

2:00 - 2:09
Eb|---------------------------------------------------------------------|
Bb|---------------------------------------------------------------------|
Gb|--5-5-5-5-5-5-5-5-5-5-5-5-5-5-5---5-5-5-5-5-5-5-5-5-5-5-5-5-5-5-5----|
Db|--5-5-5-5-5-5-5-5-5-5-5-5-5-5-5---6-6-6-6-6-6-6-6-6-6-6-6-6-6-6-6----|
Ab|--0-0-0-0-0-0-0-0-0-0-0-0-0-0-0---3-3-3-3-3-3-3-3-3-3-3-3-3-3-3-3----|
Eb|----------------------------------4-4-4-4-4-4-4-4-4-4-4-4-4-4-4-4----|
Ab|---------------------------------------------------------------------|

2:10 – 2:19
Eb|---------------------------------------------------------------------|
Bb|---------------------------------------------------------------------|
Gb|--5-5-5-5-5-5-5-5-5-5-5-5-5-5-5---5-5-5-5-5-5-5-5-5-5-5-5-5-5-5-5----|
Db|--5-5-5-5-5-5-5-5-5-5-5-5-5-5-5---6-6-6-6-6-6-6-6-6-6-6-6-6-6-6-6----|
Ab|--0-0-0-0-0-0-0-0-0-0-0-0-0-0-0---3-3-3-3-3-3-3-3-3-3-3-3-3-3-3-3----|
Eb|----------------------------------4-4-4-4-4-4-4-4-4-4-4-4-4-4-4-4----|
Ab|---------------------------------------------------------------------|


Chorus
2:20 – 2:24
Eb|------------------------------------------------|
Bb|------------------------------------------------|
Gb|------------------------------------------------|
Db|------------------------------------------------|
Ab|--0-2-2-0-2-2-0-2-2-0-2-2-3\2-2--8-8-8-8-8-8----|
Eb|--0-2-2-0-2-2-0-2-2-0-2-2-3\2-2--8-8-8-8-8-8----|
Ab|--0-2-2-0-2-2-0-2-2-0-2-2-3\2-2--8-8-8-8-8-8----|

2:25 – 2:29
Eb|-------------------------------------------------|
Bb|-------------------------------------------------|
Gb|-------------------------------------------------|
Db|-------------------------------------------------|
Ab|--0-2-2-0-2-2-0-2-2-0-2-2-3\2-2--8-8-8-8/10-10---|
Eb|--0-2-2-0-2-2-0-2-2-0-2-2-3\2-2--8-8-8-8/10-10---|
Ab|--0-2-2-0-2-2-0-2-2-0-2-2-3\2-2--8-8-8-8/10-10---|

Again...
2:30 – 2:34
Eb|------------------------------------------------|
Bb|------------------------------------------------|
Gb|------------------------------------------------|
Db|------------------------------------------------|
Ab|--0-2-2-0-2-2-0-2-2-0-2-2-3\2-2--8-8-8-8-8-8----|
Eb|--0-2-2-0-2-2-0-2-2-0-2-2-3\2-2--8-8-8-8-8-8----|
Ab|--0-2-2-0-2-2-0-2-2-0-2-2-3\2-2--8-8-8-8-8-8----|

2:35 – 2:39
Eb|-------------------------------------------------|
Bb|-------------------------------------------------|
Gb|-------------------------------------------------|
Db|-------------------------------------------------|
Ab|--0-2-2-0-2-2-0-2-2-0-2-2-3\2-2--8-8-8-8/10-10---|
Eb|--0-2-2-0-2-2-0-2-2-0-2-2-3\2-2--8-8-8-8/10-10---|
Ab|--0-2-2-0-2-2-0-2-2-0-2-2-3\2-2--8-8-8-8/10-10---|


Bridge
2:40 – 2:44
Eb|-----------------------------------------------------|
Bb|-----------------------------------------------------|
Gb|-----------------------------------------------------|
Db|-----------------------------------------------------|
Ab|--1/2-2-1/2-2-1/2-2-1/2-2-1/2-2-1/2-2-1/2-2-1/2-2----|
Eb|--1/2-2-1/2-2-1/2-2-1/2-2-1/2-2-1/2-2-1/2-2-1/2-2----|
Ab|--1/2-2-1/2-2-1/2-2-1/2-2-1/2-2-1/2-2-1/2-2-1/2-2----|


Verse
2:45 – 2:54
Eb|---------------------------------------------------------------------|
Bb|---------------------------------------------------------------------|
Gb|--5-5-5-5-5-5-5-5-5-5-5-5-5-5-5---5-5-5-5-5-5-5-5-5-5-5-5-5-5-5-5----|
Db|--5-5-5-5-5-5-5-5-5-5-5-5-5-5-5---6-6-6-6-6-6-6-6-6-6-6-6-6-6-6-6----|
Ab|--0-0-0-0-0-0-0-0-0-0-0-0-0-0-0---3-3-3-3-3-3-3-3-3-3-3-3-3-3-3-3----|
Eb|----------------------------------4-4-4-4-4-4-4-4-4-4-4-4-4-4-4-4----|
Ab|---------------------------------------------------------------------|

2:55 – 3:04 Let ring the last chord
Eb|---------------------------------------------------------------------|
Bb|---------------------------------------------------------------------|
Gb|--5-5-5-5-5-5-5-5-5-5-5-5-5-5-5---5-5-5-5-5-5-5-5-5-5-5-5-5-5-5-5----|
Db|--5-5-5-5-5-5-5-5-5-5-5-5-5-5-5---6-6-6-6-6-6-6-6-6-6-6-6-6-6-6-6----|
Ab|--0-0-0-0-0-0-0-0-0-0-0-0-0-0-0---3-3-3-3-3-3-3-3-3-3-3-3-3-3-3-3----|
Eb|----------------------------------4-4-4-4-4-4-4-4-4-4-4-4-4-4-4-4----|
Ab|---------------------------------------------------------------------|


3:05 – Repeat this until the end…
Eb|-----------------------------------------------------|
Bb|-----------------------------------------------------|
Gb|-----------------------------------------------------|
Db|-----------------------------------------------------|
Ab|--1/2-2-1/2-2-1/2-2-1/2-2-1/2-2-1/2-2-1/2-2-1/2-2----|
Eb|--1/2-2-1/2-2-1/2-2-1/2-2-1/2-2-1/2-2-1/2-2-1/2-2----|
Ab|--1/2-2-1/2-2-1/2-2-1/2-2-1/2-2-1/2-2-1/2-2-1/2-2----|


There’s a riff in the last part (3:05) that I can’t understand, but it’s something like the chorus.

DEFTONES RULES!!!!

Excuse my mistakes, ‘coz I´m from Bolivia and my English isn’t perfect.
            
Submit corrections


        Bloody Cape lessons Hard to play? Try these video lessons and learn fast Bloody Cape lessons
        
↑ Back to top | Tablatures and chords for acoustic guitar and electric guitar, ukulele, drums are parodies/interpretations of the original songs. You may use it for private study, scholarship, research or language learning purposes only