» » »

Deftones - Birthmark Tabs

Artists:  A B C D E F G H I J K L M N O P Q R S T U V W X Y Z # 

Birthmark Tabs

(ver. 1) Click to play this song!
Deftones
 Rating:
4/5 (4 votes)

 Birthmark lessons Tabs too difficult? Try these video lessons and learn fast
 
                Ok, quite an easy song to play, and the end rocks...

Intro
/////
e||---12--------|
B||------11-----|
G||---------10--|  
D||-------------|
A||-------------|
E||-------------|

then:
e||--0--|
B||--0--|
G||--0--|
D||--2--|
A||--2--|
E||--0--|

Verse
/////
e||-----------------------------|
B||-----------------------------|
G||-----------------------------|
D||--2--2-2-2-2-2-2-2--3/2---2--|
A||--2--2-2-2-2-2-2-2------3----|
E||--0--0-0-0-0-0-0-0-----------|
    .......PM.......

Chorus
//////
e||----------------|
B||----------------|
G||----------------|
D||--2--5-5--4--4--|
A||--2--5-5--4--4--|
E||--0--3-3--2--2--|

end with

e||--0--|
B||--0--|
G||--0--|
D||--2--|
A||--2--|
E||--0--|

Outro
/////
e||-----------------------|
B||-----------------------|
G||-------9-99--7---------|
D||--2-2--9-99--7--5-2-4--|
A||--2-2--7-77--5--5-2-4--|
E||--0-0-----------3-0-2--|

on fourth time
e||-----------------------------|
B||-----------------------------|
G||-------9-99--7-7-12-12-11-11-|
D||--2-2--9-99--7-7-------------|
A||--2-2--7-77--5-5-10-10--9--9-|
E||--0-0------------------------|

Structure
/////////
Intro x3
Verse x4
Chorus x8 (let ring)
Silence x4
Verse x4
Chorus x8 (let ring)
Verse x4 (muted)
Verse x4 (unmuted)
Chorus x16 (let ring)
Silence x4 (while bass plays)
Scratch Strings x4 (while bass plays)
Outro x12

Ok, enjoy playing this one, its a good song.
            
Submit corrections


        Birthmark lessons Hard to play? Try these video lessons and learn fast Birthmark lessons
        
↑ Back to top | Tablatures and chords for acoustic guitar and electric guitar, ukulele, drums are parodies/interpretations of the original songs. You may use it for private study, scholarship, research or language learning purposes only