» » »

Deftones - Beware Tabs

Artists:  A B C D E F G H I J K L M N O P Q R S T U V W X Y Z # 

Beware Tabs

(ver. 3) Click to play this song!
Deftones
 Rating:
4/5 (4 votes)

 Beware lessons Tabs too difficult? Try these video lessons and learn fast
 
                -------------------------------------------------------------------------------
bewarE - Deftones
-------------------------------------------------------------------------------

Tuning:Ab,Eb,Ab,Db,Gb,Bb,Eb
                (stef’s usual tuning for 7 string)
most of this song is played by chino on a 6 string tuned flat half step, but the 
bridge, and first chord are played on a 7 string or a low tuned 6

I know this tab is fairly accurate except for the chorus, hopefully this will help 
else to get the whole thing

intro
eb|--------------------------------------|
Bb|--------------------------------------|
Gb|--------------------------------------|
Db|--------------------------------------|
Ab|-----4--------------------------------| let this chord ring
Eb|-----4--------------------------------|
Ab|-----4--------------------------------|

Verse
      (replace the 2’s with 4’s occasionally (listen to the song))
eb|--------------------------------------------------------------------------|
Bb|-----5---2----5----2----5----2----5---(4)----5----------------------------|
Gb|--------------------------------------------------------------------------|
Db|--------------------------------------------------------------------------|
Ab|--------------------------------------------------------------------------|
Eb|--------------------------------------------------------------------------|
Ab|--------------------------------------------------------------------------|


eb|---------------------------------------------------------------------------|
Bb|-----3----2----3----2----3----2----3---2-----------------------------------|
Gb|---------------------------------------------------------------------------|
Db|---------------------------------------------------------------------------|
Ab|---------------------------------------------------------------------------|
Eb|---------------------------------------------------------------------------|
Ab|---------------------------------------------------------------------------|

Chorus (wow Im really unsure about this part of the song the chords are hard to make 
but these chords sound alright with it, this isn’t the correct number of times, just listen 
the song to get it)
eb|---------------------------------------------------------------------------|
Bb|---------------------------------------------------------------------------|
Gb|---------------------------------------------------------------------------|
Db|---6---6---6---9---9---9---6---6---6---4---4---4---------------------------|
Ab|---6---6---6---9---9---9---6---6---6---4---4---4---------------------------|
Eb|---4---4---4---7---7---7---4---4---4---2---2---2---------------------------|
Ab|---------------------------------------------------------------------------|

bridge
eb|---------------------------------------------------------------------|
Bb|---------------------------------------------------------------------|
Gb|---------------------------------------------------------------------|
Db|---------------------------------------------------------------------|
Ab|----9--9--9--9--9--9--9--4--15--15--15--15--15-----------------------|
Eb|----9--9--9--9--9--9--9--4--15--15--15--15--15-----------------------|
Ab|----9--9--9--9--9--9--9--4--15--15--15--15--15-----------------------|


breakdown
eb|---------------------------------------------------------------------------|
Bb|---------------------------------------------------------------------------|
Gb|------------7------------------------7----------------7--------------------|
Db|------------7------------------------7----------------7--------7-----------|
Ab|----4---4---5----4---4---4---5---4---5----4---4---4---5----4---7-----------|
Eb|----4---4--------4---4---4---5---4--------4---4---4--------4---5-----------|
Ab|----4---4--------4---4---4---5---4--------4---4---4--------4---------------|

Listen to song for structure

| /  slide up
|   slide down
| h  hammer-on
| p  pull-off
| ~  vibrato
| +  harmonic
| x  Mute note
bewarE is the first song on the list
the new album is set to come out on September 12th
            
Submit corrections


        Beware lessons Hard to play? Try these video lessons and learn fast Beware lessons
        
↑ Back to top | Tablatures and chords for acoustic guitar and electric guitar, ukulele, drums are parodies/interpretations of the original songs. You may use it for private study, scholarship, research or language learning purposes only