» » »

Deftones - Adrenaline Tabs

Artists:  A B C D E F G H I J K L M N O P Q R S T U V W X Y Z # 

Adrenaline Tabs

(ver. 1) Click to play this song!
Deftones
 Rating:
4/5 (4 votes)

 Adrenaline lessons Tabs too difficult? Try these video lessons and learn fast
 
                
Rift 1
                                         4X
--|--------------------------------------
--|--------5-5---------------------------
--|------------4-4-5-5-7-7-5-5-4-4-------
--|---3-3---------------------------5-5--
--|--------------------------------------
--|--------------------------------------

Rift 2                                   4X
--|--------------------------------------
--|-----5--------------------------------
--|-------4-5-7-5-4----------------------
--|-3---------------5--------------------
--|--------------------------------------
--|--------------------------------------

Rift 3                                    3X
--|--------------------------------------
--|--------------------------------------
--|--------------------------------------
--|-0-0-2-4-5-7-5-4----------------------
--|-0-2-2-2-3-5-3-2----------------------
--|--------------------------------------

Rift 4                                     3X
--|---------------------------------------
--|---------------------------------------
--|---------------------------------------
--|-0-0-2-2-4-4-5-5-7-7-5-5-4-4-----------
--|-0-0-2-2-2-2-3-3-5-5-3-3-2-2-----------
--|---------------------------------------
            
Submit corrections


        Adrenaline lessons Hard to play? Try these video lessons and learn fast Adrenaline lessons
        
↑ Back to top | Tablatures and chords for acoustic guitar and electric guitar, ukulele, drums are parodies/interpretations of the original songs. You may use it for private study, scholarship, research or language learning purposes only