» » »

Deftones - Acid Hologram Tabs

Artists:  A B C D E F G H I J K L M N O P Q R S T U V W X Y Z # 

Acid Hologram Tabs

(ver. 3) Click to play this song!
Deftones
 Rating:
4.3/5 (29 votes)

 Acid Hologram  lessons Tabs too difficult? Try these video lessons and learn fast
 
                [Intro/Verse]

e|-------------------|---------------------------------|
B|-------------------|---------------------------------|
G|-------------------|---------------------------------|
D|8---8--8---7---7--7|--------3-3-3-2-2-2-2-2----------|
A|-------------------|---------------------------------|
E|6---6--6---5---5--5|1-1-1-1-----------------1-1-1-1-0|
B|-------------------|---------------------------------|
F|-------------------|---------------------------------|


[Chorus]

e|-------------------------------------|
B|-------------------------------------|
G|-------------------------------------|
D|-------------------------------------|
A|-------------------------------------|
E|-------------------------------------|
B|4-3-3---4-4-1-1-1---4-3-3---4-4-1-1-1|
F|-------------------------------------|


[Breakdown/Outro]

e|--------2v-------3v----------2v|
B|--------2v-------3v----------2v|
G|--------2v-------3v----------2v|
D|--------2v-------3v----------2v|
A|-------------------------------|
E|2---2-2----22-22----2---2-2----|
B|2---2-2----22-22----2---2-2----|
F|0---0-0----00-00----0---0-0----|
            
Submit corrections


        Acid Hologram  lessons Hard to play? Try these video lessons and learn fast Acid Hologram  lessons
        
↑ Back to top | Tablatures and chords for acoustic guitar and electric guitar, ukulele, drums are parodies/interpretations of the original songs. You may use it for private study, scholarship, research or language learning purposes only