Home » D » Death Cab For Cutie »

Death Cab For Cutie - We Looked Like Giants Ukulele

Artists:  A B C D E F G H I J K L M N O P Q R S T U V W X Y Z # 

We Looked Like Giants Ukulele

(ver. 2) Click to play this song!
Death Cab For Cutie
     Intro/Verse

A||---------------------------------|
E||---2---2---2---2---2---2---2---2-|
C||---------------------------------|
G||-4---4---4---4---2---2---2---2---|
                                 S
A||-----------------7---7---7---7--|
E||-0---0---0---0-----0---0---0----|
C||---2---2---2---2----------------|
G||--------------------------------|

A||---------------------------------|
E||---2---2---2---2---2---2---2---2-|
C||---------------------------------|
G||-4---4---4---4---2---2---2---2---|

A||-------------------2---2---2----|
E||-0---0---0---0------------------|
C||---2---2---2---2----------------|
G||-----------------4---4---4---2--|

A||---------------------------------|
E||---2---2---2---2---2---2---2---2-|
C||---------------------------------|
G||-4---4---4---4---2---2---2---2---|
                                 S
A||-----------------7---7---7---7--|
E||-0---0---0---0-----0---0---0----|
C||---2---2---2---2----------------|
G||--------------------------------|

A||---------------------------------|
E||---2---2---2---2---2---2---2---2-|
C||---------------------------------|
G||-4---4---4---4---2---2---2---2---|

A||-------------------2---2---2----|
E||-0---0---0---0------------------|
C||---2---2---2---2----------------|
G||-----------------4---4---4---2--|
                                 S
A||-----------------7---7---7---7--|
E||-0---0---0---0-----0---0---0----|
C||---2---2---2---2----------------|
G||--------------------------------|

A||---------------------------------|
E||---2---2---2---2---2---2---2---2-|
C||---------------------------------|
G||-4---4---4---4---2---2---2---2---|

A||---------------------------------|
E||---2---2---2---2---2---2---2---2-|
C||---------------------------------|
G||-4---4---4---4---2---2---2---2---|

A||-------------------2---2---2----|
E||-0---0---0---0---------------2--|
C||---2---2---2---2----------------|
G||-----------------4---2---4------|

A||-----5---5---------5---5---------7---7--------------------|
E||-3-----3-----3-2-----5-----2-5-----------5-----2----2-----|
C||---------------------------------------------2----------2-|
G||---4-------4-----2-------2-----6---4---6---4-----7----4---|

A||-2-2-2-2-xxx-2-2-2-2-xxx-2-2-2-2-xxx-2-2-2-2-2-2-|
E||-------------------------------------------------|
C||---------xxx---------xxx---------xxx-------------|
G||-4-4-4-4-xxx-4-4-4-4-xxx-4-4-4-4-xxx-4-4-4-4-4-4-|
                         S           S       S    S
A||-----------------------6---6---------6---6-----6-----6-----|
E||-----------------------------------------------------------|
C||-2-2-2-2-1-1-1-1-4-4-4-6--6--4-4-4-6--6--4-6--4-6----------|
G||-7-7-7-7-6-6-6-6-9-9-9-11--11--9-9-9-11--11--9-11--9-11----|

A||-----------6---6---6---------------------|
E||-----------------------------------------|
C||-4-4-4-4-4-6--6--6--2-2-2-2-2-2-2-2------|
G||-9-9-9-9-9-11--11--11--7-7-7-7-7-7-7-7---|

A||-6---6---6------------------------------------0-0-0-0-0---|
E||----------------------------------------------------------|
C||-6--6--6--4--4--1-1-1-2--2-2-2-2-2-1-1-1-1----------------|
G||-11--11--11--9--9--6-6-6-7--7-7-7-7-7-6-6-6-6-2-2-2-2-2---|

A||-------------------------6---6---6---6-----|
E||-------------------------------------------|
C||-4-4-4-4-4--4-4-2-4-4-4--6--6--6--6--------|
G||-9-9-9-9-9--9-9-7-9-9-9--11--11--11--11----|
     P P          H
A||-------0--0-0-0-2-2-2--2-2-2-|
E||-2-0-------------------------|
C||-----2-----------------------|
G||-----------------------------|            
Submit corrections

↑ Back to top | Tablatures and chords for acoustic guitar and electric guitar, ukulele, drums are parodies/interpretations of the original songs. You may use it for private study, scholarship, research or language learning purposes only