Home » D » Death Cab For Cutie »

Death Cab For Cutie - We Looked Like Giants Tabs

Artists:  A B C D E F G H I J K L M N O P Q R S T U V W X Y Z # 

We Looked Like Giants Tabs

(ver. 1) Click to play this song!
Death Cab For Cutie
Gtr I (E A D G B E) 
   Okay this is my first tab. This is a great song and i couldn't find a tab of
it anywhere...so i went and did it myself. This is all the basic rhythms and
chords you need to play the song. Any input would be great. Thx ;)

CAPO on 2   
INTRO
Gtr I
  
|------------------------------------------------------------------|
|------------------------------------------------------------------|
|-2-2-2-5-4---2-0-2-2-2-5-4---2-0-5-4-5-4-5-4-5---5-7-5-7-2-4-5----|
|-2---------5-----2---------5-----5-------------5------------------|
|-0---------------0---------------3-------------5------------------|
|-----------------------------------------------3------------------|

Chords for Verses
 
|------------------------------|
|------------------------------|
|-2-2-5------------------------|
|-2-2-5-5-----End on-2-2-2-----|
|-0-0-3-5------------2-2-2-----|
|-------3------------0-0-0-----|

 Strum till the final verse
|---------------|
|-1-------------|
|-2-------------|
|-2---2---------|
|-----2---------|
|-----0---------|

Final Verse same as others end on |---|
                                  |---|
                                  |---|
                                  |-5-|
                                  |-5-|
                                  |-3-|
            
Submit corrections

↑ Back to top | Tablatures and chords for acoustic guitar and electric guitar, ukulele, drums are parodies/interpretations of the original songs. You may use it for private study, scholarship, research or language learning purposes only