Home » D » Death Cab For Cutie »

Death Cab For Cutie - Lack Of Color Tabs

Artists:  A B C D E F G H I J K L M N O P Q R S T U V W X Y Z # 

Lack Of Color Tabs

(ver. 1) Click to play this song!
Death Cab For Cutie
This is 100% correct!
Edited by BAdMamajama

Original by JimmyB4403

Why tune down when you can just play one less fret? =)


Intro/Verse:


eb|-------------------------------| 
Bb|-------------------------------| 
Gb|-------------------------------|
Db|-------------------------------|
Ab|-10-10-10-10-10-10-10/6-6------| 
Eb|0--0--0--0--0--0--0----0-0-----|  


eb|--------------------------------|   
Bb|--------------------------------|
Gb|--------------------------------|   
Db|--------------------------------|
Ab|--6/10-10-10-10-10-10/8-8-------|  
Eb|-0-0--0--0--0--0--0----0-0------|   

                            
eb|--------------------------------------------|
Bb|--------------------------------------------|
Gb|-----8-8-8-8-8-8-----------------8-8--------|
Db|-------------------8-8--6-6-6-6-------8-----|
Ab|--------------------------------------------|
Eb|----8-8-8-8-8-8---8-8----8-8-8----8--8------|


And when I see you
I really see you upside down
But my brain knows better
It picks you up and turns you around
Turns you around
Turns you around

If you feel discouraged
And there's a lack of color here
Please don't worry lover
It's really bursting at the seams
The spectrum's A to Z

Ohhh's

This is fact not fiction
For the first time in years
And all the girls in every girlie magazine
Can't make me feel any less alone
I'm reaching for the phone 

Strumming:

eb|-----------------------------|
Bb|-----------------------------|
Gb|--7-7--7-7--8--8---7-7--5-5--|
Db|--8-8--8-8--10-10--8-8--6-6--|
Ab|--8-8--8-8--10-10--8-8--6-6--|
Eb|--6-6--7-7--8--8---6-6--4-4--|



To call at 7:03
And on your machine I slur a plea
For you to come home


Bb|-------------|
Gb|-7-7--7-7----|
Db|-8-8--8-8----|
Ab|-8-8--8-8----|
Eb|-6-6--6-6----|


But I know it's too late


eb|-------------|
Bb|-------------|
Gb|-8---7--5----|
Db|-10--5--6----|
Ab|-10--6--6----|
Eb|-8------4----|


And I should have given you a reason to stay
Given you a reason to stay

Outro (2x)

eb|-------------------------------| 
Bb|-------------------------------| 
Gb|-------------------------------|
Db|-------------------------------|
Ab|-10-10-10-10-10-10-10/6-6------| 
Eb|0--0--0--0--0--0--0----0-0-----|  


eb|--------------------------------|   
Bb|--------------------------------|
Gb|--------------------------------|   
Db|--------------------------------|
Ab|--6/10-10-10-10-10-10/8-8-------|  
Eb|-0-0--0--0--0--0--0----0-0------|   

                            
eb|--------------------------------------------|
Bb|--------------------------------------------|
Gb|-----8-8-8-8-8-8-----------------8-8--------|
Db|-------------------8-8--6-6-6-6-------8-----|
Ab|--------------------------------------------|
Eb|----8-8-8-8-8-8---8-8----8-8-8----8--8------|

Last time end on:

eb|-------|
Bb|-------|
Gb|-------|
Db|-------|
Ab|----10-|
Eb|---0---|

This is fact not fiction
For the first time in years...
            
Submit corrections

↑ Back to top | Tablatures and chords for acoustic guitar and electric guitar, ukulele, drums are parodies/interpretations of the original songs. You may use it for private study, scholarship, research or language learning purposes only